Guitar Tabs, Chords and Lyrics
Server problems seems to be fixed. Chordie has been experiencing problems with songs disappearing. These issues now seems to be fixed, but still verifying the fix. If you find anything strange, please email admin@chordie.com.


Roses  Los Lonely Boys

Meg and Dia - Roses
Tabbed by Darik Kamnoi
 
 e|--------------------7-7-7-5-5-5-2-2-2-------------------2-2-2-2\4-4-4-4----|
 B|--5-5-5-4-4-4-0-0-0-------------------5-5-5-4-4-4-0-0-0--------------------|
 G|---------------------------------------------------------------------------|
 D|---------------------------------------------------------------------------|
 A|---------------------------------------------------------------------------|
 E|---------------------------------------------------------------------------|

| \ slide down
You should be adding vibratos here and there where Kenji plays it.
Chords: (the x's mean that the note is muted or not played)
[C#m] [A(1)] [A] [Am] [B] [E] [F#m]  
 
 e|--4----5-----0----0----x----0----2-----------------------------------------------|
 B|--5----5-----2----1----4----0----2-----------------------------------------------|
 G|--6----6-----2----2----4----1----2-----------------------------------------------|
 D|--6----7-----2----2----4----2----4-----------------------------------------------|
 A|--4----7-----0----0----2----2----4-----------------------------------------------|
 E|--x----5-----x----x----x----0----2-----------------------------------------------|

Notes: Remember, you don't have to play these chords at these octaves. you could play
at higher octaves as well.
Verse 1:
(note when palm-muting, play power chords. Meaning the Root and fifth)
[C#m]Turn around there's those eyes again.
[A]Turn around fake indifference and I.
[C#m] [A(1)]  
 
 e|----4-------5--------------------------------------------------------------|
 B|----5-------5--------------------------------------------------------------|
 G|----6-------6--------------------------------------------------------------|
 D|----6-------7--------------------------------------------------------------|
 A|----4-------7--------------------------------------------------------------|
 E|----x-------5--------------------------------------------------------------|

(Kenji comes in with the second guitar in this part and plays this. It's just the
i didn't show the pattern.)
[C#m]Watch their cold, dark silhouettes disap[A]pear.
[C#m]A hundred bodies fill this room.
[A]And all their faces overdone.
[C#m]Pain is foreign, foreign to [A]us.
Pre-chorus:
[C#m]I don't [B]even [A]know you.
[C#m]You won't [B]even [A]know I'm gone.
[F#]Was it something I did [A]wrong?[Am]
Chorus:
[E]Roses, [B]roses [A]cold.[Am]
[E]Roses, [B]roses [A]sold out.[Am]
Verse 2:
[C#m]Turn around reds and whites again.
[A]I'd sell my kicks for one more low tar.
[C#m]Fevers hand in hand with shoelace [A]bracelets.
[C#m]Why are some girls so naive?
[A]He didn't unbutton your blouse to see.
[C#m]A better view of your heart.
Oh yeah, can't blame you for [A]trying.
Pre-chorus:
[C#m]I don't [B]even [A]know you.
[C#m]You won't [B]even [A]know I'm gone.
[F#]Was it something I did [A]wrong?[Am]
Chorus:
[E]Roses, [B]roses [A]cold.[Am]
[E]Roses, [B]roses [A]sold out.[Am]
[E]Roses, [B]roses [A]cold.[Am]
[E]Roses, [B]roses [A]sold out.[Am]
Bridge:
[C#m]Sing it soft.
[A]Make it slow.
[B]Apples parachute
[B]the boys back down.
[C#m]Fill it up.
[A]Overflow.
[B]A new, improved [B]modern way to feel.
End:
[C#m]I don't [B]even [A]know you.
[C#m]You won't [B]even [A]know I'm gone.
[F#]Was it something I did [A]wrong?[Am]
[F#]Was it something I did [A]wrong?[Am]
[F#]Was it something I did [A]wrong?
===============================================================
I'm more than positive that this is correct. I didn't put the little adlibs in. I'll
that when i have more time. Feel free to contact me if you have any questions. If the
aren't placed on top of the lyrics correctly then just play it where it's supposed to be =).

Important: The song above is NOT stored on the Chordie server. The original song is hosted at www.guitaretab.com. Chordie works as a search engine and provides on-the-fly formatting. Chordie does not index songs against artists'/composers' will. To remove this song please click here.

Text color:
Chord color:
Chord grids: 
Font size:    
Page size: 

A Am B C#m E F# F#m
Rate #1 of 3 versions

Jango Player

Login - add to songbook

SHARE PAGE  



You need to log in to post comments