Guitar Tabs, Chords and Lyrics
Major upgrade!! After one year development the new version of Chordie is now online! Please give feedback.


Pa pa pa  Los Prisioneros

Introx2
 
 e|-------------|-------------|
 B|-------------|-------------|
 G|-------------|-------------|
 D|-5555555-7-9-|----5------7-|
 A|-------------|-777-7555-9--|
 E|-------------|-------------|

[G5]ME ENCANTAN LAS CANCIONES DE [C5]AMOR
AQUELLAS QUE P[D5]IDEN UN MUNDO MEJOR
[G5]VIVO CON EL MIEDO AL DEDO
QUE ALG[C5]UNA VEZ APR[D5]ETARA EL BOTON
 
 e|-------------|-------------|
 B|-------------|-------------|
 G|-------------|-------------|
 D|-5555555-7-9-|----5------7-|
 A|-------------|-777-7555-9--|
 E|-------------|-------------|

CR[G5]EO EN LA LIBERTAD Y EN MI C[C5]ORAZON
HAY UN SITIO ESP[D5]ERANDO POR UNA FLOR
LA ES[G5]CENA ME PONE NERVIOSO AUNQUE EL [C5]SHOW
DEBE CONT[D5]INUAR YO SOY UN PROFESIONAL.
EN[C5]TREGO DIVE[D5]RSION,[C5] VAHARADAS DE [D5]AMOR
Y MI CORO DICE, Y MI CORO DICE, Y MI CORO DICE:
 
 e|-------------|
 B|-------------|
 G|-------------|

D|-5555555-7-9-|
 
 A|-------------|
 E|-------------|

PAPAPAPAPAPAPAPAPA
 
 e|-------------|
 B|-------------|
 G|-------------|
 D|----5------7-|

A|-777-7555-9--|
 
 E|-------------|

PAPAPAPAPAPAPAPAPAPA
(cantemos al amor)
 
 e|-------------|
 B|-------------|
 G|-------------|

D|-5555555-7-9-|
 
 A|-------------|
 E|-------------|

PAPAPAPAPAPAPAPAPA
 
 e|-------------|
 B|-------------|
 G|-------------|
 D|----5------7-|

A|-777-7555-9--|
 
 E|-------------|

PAPAPAPAPAPAPAPAPAPA
(cantemos a la paz)
M[G5]I DESTINO SON LOS
AVIONES Y L[C5]OS HOTELES
QUE [D5]NO ME DEJAN REIR
L[G5]AS PENAS DE AMOR
ME SUMERGEN EN D[C5]EPRESIONES
LLENAS DE SENS[D5]IBILIDAD
O[C5]FREZCO EL COR[D5]AZON, ILU[C5]SIONES DE A[D5]MOR
Y MI CORO DICE, Y MI CORO DICE, Y MI CORO DICE:
 
 e|-------------|
 B|-------------|
 G|-------------|

D|-5555555-7-9-|
 
 A|-------------|
 E|-------------|

PAPAPAPAPAPAPAPAPA
 
 e|-------------|
 B|-------------|
 G|-------------|
 D|----5------7-|

A|-777-7555-9--|
 
 E|-------------|

PAPAPAPAPAPAPAPAPAPA
(cantemos al amor)
 
 e|-------------|
 B|-------------|
 G|-------------|

D|-5555555-7-9-|
 
 A|-------------|
 E|-------------|

PAPAPAPAPAPAPAPAPA
 
 e|-------------|
 B|-------------|
 G|-------------|
 D|----5------7-|

A|-777-7555-9--|
 
 E|-------------|

PAPAPAPAPAPAPAPAPAPA
(cantemos a la paz)
 
 e|-------------|
 B|-------------|
 G|-------------|

D|-5555555-7-9-|
 
 A|-------------|
 E|-------------|

PAPAPAPAPAPAPAPAPA
 
 e|-------------|
 B|-------------|
 G|-------------|
 D|----5------7-|

A|-777-7555-9--|
 
 E|-------------|

PAPAPAPAPAPAPAPAPAPA
[A#5] (ca[A5]ntemos al amoooor)
UN POQUITO DE AMOR PUEDE CAMBIAR AL MUNDO MUCHACHOS,
CAMBIEMOLO CON ESTA CANCION
PAPAPAPAPAPAPAPAPAPAPAPAPAPAPAPAPAPAPAPA
PAPAPAPAPAPAPAPAPAPAPAPAPAPAPAPAPAPAPAPA
 
 e|-------------|
 B|-------------|
 G|-------------|

D|-5555555-7-9-|
 
 A|-------------|
 E|-------------|

PAPAPAPAPAPAPAPAPA
 
 e|-------------|
 B|-------------|
 G|-------------|
 D|----5------7-|

A|-777-7555-9--|
 
 E|-------------|

PAPAPAPAPAPAPAPAPAPA
 
 e|-------------|
 B|-------------|
 G|-------------|

D|-5555555-7-9-|
 
 A|-------------|
 E|-------------|

PAPAPAPAPAPAPAPAPA
 
 e|-------------|
 B|-------------|
 G|-------------|
 D|----5------7-|

A|-777-7555-9--|
 
 E|-------------|

PAPAPAPAPAPAPAPAPAPA
OFR[C5]EZCO EL COR[D5]AZON, MIL[C5] ILUSIONES DE [D5]AMOR
Y LA SUBIDA DE TONO DICE, Y LA SUBIDA DE TONO DICE,
Y LA SUBIDA DE TONO DICE:
¡¡¡IIIIIAAAAAUUUUU!!!
TU [G5]SABES, UN ARTISTA ES UN HOMBRE SENSIBLE
QUE LLORA CUANDO VE CAER UNA FLOR, Y QU[C5]E SE
ASUSTA CON COSAS COMO EL DEDO QUE APRIETA EL BOTON,
ES[D5] INCREIBLE COMO CUANDO SUBO A UN ESCENARIO ME
TRANSFORMO,C[E5]UANDO VEO LAS LUCES DE COLORES Y SIENTO
EL CALOR DE LA GENTE.MI CORAZON PALPITA Y SOY OTRO.
PO[D5]R ESO MI MENSAJE DEAMOR PARA TODO EL MUNDO
ES PA, PA ,PA..

Important: The song above is NOT stored on the Chordie server. The original song is hosted at www.guitaretab.com. Chordie works as a search engine and provides on-the-fly formatting. Chordie does not index songs against artists'/composers' will. To remove this song please click here.

Text color:
Chord color:
Chord grids: 
Font size:    
Page size: 

A#5 A5 C5 D5 E5 G5
Rate #1 of 2 versions

Jango Player

Login - add to songbook

SHARE PAGE  



You need to log in to post comments