Guitar Tabs, Chords and Lyrics
Server problems seems to be fixed. Chordie has been experiencing problems with songs disappearing. These issues now seems to be fixed, but still verifying the fix. If you find anything strange, please email admin@chordie.com.


Algo  Los Tipitos

 
 -------------------------------------------------------------------------------

ALGO - Los Tipitos
 
 -------------------------------------------------------------------------------

Tabbed by: Matias Espina
Email: matias_elkabezon@hotmail.com
Intro
[A] [F#m] [E] [(A)]  
 
 E----------5-------5------ -----------------------------|
 B--2/3-2/3-----2/3---3-2-- -333-222-000-333-22-00-------|
 G------------------------- x3 -----------------------(2)---|
 D------------------------- -----------------------------|
 A------------------------- -----------------------------|
 E------------------------- -----------------------------|

Ya no quiero esperar m[E]ás
tengo miedo que pas[A]ó
algo inesperado, el c[E]entro
siempre es impredec[A]ible
tengo miedo que pas[E]ó
lo que no quiero dec[A]ir
si tan solo cr[Bm]uzaras
la pue[D]rta en este i[E]nstante
del[D]ante de este fu[E]ego
que m[D]iro sin rem[E]edio
hay una ll[D]ama que te ll[A]ama
sin par[E]ar
[E] Una vela es para m[A]i
otra vela es p'al Señ[E]or
y pa' María santísi[A]ma
que el Señor y Mar[E]ía
te cuiden también h[A]oy
que no estoy ce[Bm]rca
y te deje[D] llevar por[E] otras manos
mir[D]ando como un n[E]iño
dej[D]é caer la ar[E]ena
tristem[D]ente entre los dedo[A]s ahah[E]ah.......
[E]Algo que viene y que pega
y que duele y que...
[A]Algo me tiene que [F#m]despabilar
[A]Algo que despabi[F#m]lar
[C#m] La suerte va a cambi[D]ar
[C#m] Hace cuanto no gan[D]as ( X2)
una...
A F#m E A*
 
 E----------5-------5------ -----------------------------|
 B--2/3-2/3-----2/3---3-2-- -333-222-000-333-22-00-------|
 G------------------------- x2 -----------------------(2)---|
 D------------------------- -----------------------------|
 A------------------------- -----------------------------|
 E------------------------- -----------------------------|

A*(el mismo de la tab)
Una vela es para mi
otra vela es p'al Señ[E]or
y pa' María santísi[A]ma
que el Señor y Mar[E]ía
te cuiden también h[A]oy
que no estoy ce[Bm]rca
y te deje[D] llevar por[E] otras manos
mir[D]ando como un n[E]iño
dej[D]é caer la ar[E]ena
tristem[D]ente entre los dedo[A]s ahah[E]ah.......
[E]Algo que viene y que pega
y que duele y que...
[A]Algo me tiene que [F#m]despabilar
[A]Algo que despabi[F#m]lar
[C#m] La suerte va a cambi[D]ar
[C#m] Hace cuanto no gan[D]as ( X 2)
[A] [F#m] [E]  
 
 E----------5-------5------ -----------------------|
 B--2/3-2/3-----2/3---3-2-- -333-222-000-333-22-00-|
 G------------------------- x2 -----------------------|
 D------------------------- -----------------------|
 A------------------------- -----------------------|
 E------------------------- -----------------------|

Unaaaaaaaaaaaaaaaaaaa... ...aaaaaaaaaaaaaaaaaa...
[A] [F#m]  
 
 E----------5-------5------|
 B--2/3-2/3-----2/3---3-2--|
 G-------------------------| x3 [A]
 D-------------------------|
 A-------------------------|
 E-------------------------|

Unaaaaaaaaaaaaaaaaaaa... Unaaaaaaaaaaaaaaaa....
Eso es todo, espero que les guste este temazo de los tipitos.
Nos vemos.

Important: The song above is NOT stored on the Chordie server. The original song is hosted at www.guitaretab.com. Chordie works as a search engine and provides on-the-fly formatting. Chordie does not index songs against artists'/composers' will. To remove this song please click here.

Text color:
Chord color:
Chord grids: 
Font size:    
Page size: 

A Bm C#m D E F#m
Rate #1 of 2 versions

Jango Player

Login - add to songbook

SHARE PAGE  




You need to log in to post comments