Guitar Tabs, Chords and Lyrics
Major upgrade!! After one year development the new version of Chordie is now online! Please give feedback.


Always on My Mind  Loverboy

Always On My Mind - Loverboy
(Paul Dean & Mike Reno) 1980
Tabbed by BaddGuitar
Video: http://www.youtube.com/watch?v=C8FIQeKlAn4
Intro Chords
D D D or D A G B5 A/C# F#5
 
 --------------------------- ---------------3------------------|
 -----------------5--7--7--- --7----3----2--3-------2----------|
 ----4---4--6--7-----7--7--- --7----2----2--4--4----2----------|
 --4---4-------------7--7--- --7----0----2--5--4----2-----4----|
 --------------------5--5--- --5---------0--5--2----4-----4----|
 --------------------------- ---------------3-------------2----|

Fill Riff #1 Fill Riff #2
 
 --------------------------- ---------------------------|
 ----4--------------3-3----- ----4-------------4-4------|
 ----4--------------2-2----- ----4-------------4-4------|
 ----4-44-33-22-11--0-0----- ----4-------------4-4------|
 ----2---------------------- ----2--4-5-4-2-0--2-2------|
 --------------------------- ---------------------------|

:START:
D A | G G A| B5 A | B5 [Fill #1]
D A | G G A| D A/C# | B5 (hold)
:Verse #1:
[B5]I knew her since high school[A] [F#5]we were seventeen[A]
[F#5]I was old enough to know [A]she was [B5]old enough to dream[A] [A] [B5]
[B5]I try to remember,[A] b[F#5]ring back memories[A]
D (hold) A/C# (hold) B5 (hold)
And you know that she is always on my mind
:Verse #2:
[B5]She knew what I needed [A], [F#5]never let me down[A]
F#5 A B5 [Fill #2]
She was always the last to leave And the first to come around
[B5]I try to remember,[A] [F#5]bring back memories[A]
D (hold) A/C# (hold) B5 (hold)
And you know that she is always on my mind
:Chorus:
D A G A B5 A B5 [Fill #1]
Always on my mind She's driving me crazy
D A G A D (hold) A/C# (hold) B5 (hold)
Always on my mind, And you know that she is always on my mind
:Verse #3:
[B5]Every night in my dreams [A] [F#5]I still see her face[A]
F#5 A B5 [Fill #2]
but she gave it up for me ,she only gave me a taste
[B5]Every time I see h[A]er [F#5]it comes back to me
D (hold) A/C# (hold) B5 (hold)
And you know that she is always on my mind
:Chorus:
D A G A B5 A B5 [Fill #1]
Always on my mind She's driving me crazy
D A G A D (hold) A/C# (hold) B5 (hold)
Always on my mind, And you know Yes you know yes you know
:Bridge:
D A | G A| B5 A | B5 [Riff #1]
D A | G A| D A/C# | B5
:Chorus:
D A G A B5 A B5 [Fill #1]
Always on my mind She's driving me crazy
D A G A D (hold) A/C# (hold) B5 [Fill #1]
Always on my mind, And you know that she is always on my mind
:Chorus:
D A G A B5 A B5 [Fill #1]
Always on my mind She's driving me crazy
D A G A D A/C# B5 [Fill #1]
Always on my mind, And you know Yes you know yes you know
:Chorus: (repeat and fade)

Important: The song above is NOT stored on the Chordie server. The original song is hosted at www.guitaretab.com. Chordie works as a search engine and provides on-the-fly formatting. Chordie does not index songs against artists'/composers' will. To remove this song please click here.

Text color:
Chord color:
Chord grids: 
Font size:    
Page size: 

A B5 F#5
Rate #2 of 3 versions

Login - add to songbook

SHARE PAGE  



You need to log in to post comments