Guitar Tabs, Chords and Lyrics
Major upgrade!! After one year development the new version of Chordie is now online! Please give feedback.


Hate and Jealousy  Lucero

By Lucero
From the Album "That Much Further West"
INTRO
[E] [E]  
 
 |-------------------------------|-------------------------------|
 |-------------------------------|-------------------------------|
 |-------------------------7-9---|-------------------------7-9---|
 |---------7-9-9-9-------------7-|---------7-9-9-9-------------7-|
 |-------------------------------|-------------------------------|
 |-0-0-0-0---------0-0-0-0-------|-0-0-0-0---------0-0-0-0-------|

[C] [E]  
 
 |-------------------------------|-------------------------------|
 |-------------------------------|-------------------------------|
 |-------------------------7-9---|-------------------------7-9---|
 |---------7-9-9-9-------------7-|---------7-9-9-9-------------7-|
 |-------------------------------|-------------------------------|
 |-8-8-8-8---------8-8-8-8-------|-0-0-0-0---------0-0-0-0-------|

[E] [E] [C] [E]  
[E] [E] [C] [E]  
[E]I've got enough jealousy
[C]and hate inside me
[G]to keep me warm
[D]it keeps me warm
[E]can't settle for nothing less
[C]been trying to prove myself
[G]since I was born
[D]since I was born
[E] [E] [C] [E]  
[D]Helplessness just burns me up [C]inside
[D]I can't see the savior for the [C]light
[D]Wanting what ain't yours may not be [C]right
[D]I want nothing that ain't truly [C]mine
[E]If I could I would stop caring
[C]But I Don't like hearing
[G]That I'm not good enough
[D]I'm not good enough
[E]I know that it's not too late
[C]Well I don't want it to no other way
[G]Let it burn me up
[D]Let it burn me Up
[E] [E] [C] [E]  
[D]Helplessness just burns me up [C]inside
[D]I can't see the savior for the [C]light
[D]Wanting what ain't yours may not be [C]right
[D]I want nothing that ain't truly [C]mine
[C] [G] [C] [D] [E]  
[C] [G] [C] [D] [E]  
[C] [G] [C] [D] [E]  
[C] [G] [C] [D] [E]  
[E] [E] [C] [E]  
[E] [E] [C] [E]  
[D]Helplessness just burns me up [C]inside
[D]I can't see the savior for the [C]light
[D]Wanting what ain't yours may not be [C]right
[D]I want nothing that ain't truly [C]mine

Important: The song above is NOT stored on the Chordie server. The original song is hosted at www.guitaretab.com. Chordie works as a search engine and provides on-the-fly formatting. Chordie does not index songs against artists'/composers' will. To remove this song please click here.

Text color:
Chord color:
Chord grids: 
Font size:    
Page size: 

C D E G
Rate #2 of 4 versions

Login - add to songbook

SHARE PAGE  




You need to log in to post comments