Guitar Tabs, Chords and Lyrics
Update 25:10. 13:00. Site is back up running again. Songbooks are recovered. Woring on getting search back up..


Hai un momento, Dio?  Ligabue

 
 e:--------------------|--------------------------|
 B:--------------------|--------0--------0--------|
 G:--------------------|-----0--------0--------0--|
 D:----------------0-2/|--3--------3--------3-----|
 A:--------------------|--------------------------|
 E:--------------------|--------------------------|
 --------------------------|--------------------------|
 --------0--------0--------|--------0--------3-----0--|
 -----0--------0--------0--|-----0--------0-----------|
 --2--------2--------2-----|--3--------3--------3-----|
 --------------------------|--------------------------|
 --------------------------|--------------------------|

[G]  
 
 --------------------------|--3---------------------|
 --------0-----------------|--3------1--1--0--------|
 -----0--------------------|--0------0--------2--0--|
 --2--------2/-3\-2--0-----|--0---------------------|
 -----------------------3--|--2---------------------|
 --------------------------|--3---------------------|

[C] [Am] [G] [C] [Am]  
 
 --0--------0--------|--3--------------------|--0--------0--------|
 --1--------1--------|--3--------1--0--------|--1--------1--------|
 --0--------2--------|--0--------------2--0--|--0--------2--------|
 --2--------2--------|--0--------------------|--2--------2--------|
 --3--------0--------|--2--------------------|--3--------0--------|
 --0--------0--------|--3--------------------|--0--------0--------|

[G]C'ho un po' di [D]traffico nell[C]'anima[Am]
[G]non ho ca[D]pito che or'[C]e[Am]
[G]c'ho il frigo vuot[D]o
ma v[C]oglio parla[Am]re
percio[G]' [D]paghi [C]Te.[Am]
[G]Che tu sia un [D]angelo
od un [C]diavol[Am]o
[G]ho tre do[D]mande per [C]Te:[Am]
[G]chi prende l'In[D]ter
do[C]ve mi po[Am]rti
e poi di'[G], soprattut[D]to,
perch[C]?
Perc[D]h
ci dovr essere un mot[Am]ivo, no[C]?
Perc[D]h
forse la vita la ca[Am]pisce
chi e' piu' [C]pratico.
[G]Hai un mo[D]mento Di[C]o?
[Am]No, perche' s[G]ono qua
[D]insomma ci sar[C]ei anch'io[D4].[D]
[G]Hai un mo[D]mento Di[C]o?
O [Am]Te o chi per [G]Te
avete un [D]attimo per [C]me.
(Ripete l'intro senza l'ultimo pezzo di TAB)
[G]Li pago tutti [D]io i miei d[C]ebit[Am]i
[G]se rompo [D]pago per t[C]re[Am]
[G]quanto mi cost[D]a
[C]una rispost[Am]a
da Te [G]d, s[D]u, qua[C]nt'[Am]?
[G]Ma Tu sei li' [D]per non ris[C]pond[Am]ere
[G]e indossi[D] un gran bel g[C]ile[Am]t
[G]e non bevi nien[D]te
[C]o io non T[Am]i sento, com[G]'?[D]
perc[C]h?
Perc[D]h
ho qualche cosa in cui [Am]credere[C]
Perc[D]h
non riesco mica a ricor[Am]dare
bene [C]che cos'.
[G]Hai un mo[D]mento Di[C]o?
[Am]No, perch s[G]ono qua
[D]se vieni sotto of[C]fro io[D4].[D]
[G]Hai un mo[D]mento Di[C]o?
Lo[Am] so che fila [G]c'
ma Tu hai[D] un attimo [C]per me.
[Bb]nel mio stomaco son se[D4]mpr[D]e solo[Bb]
nel Tuo stomaco sei [D4]sem[D]pre so[Bb]lo
ci che sento, [F] ci che senTi
[D]non lo sapranno mai
[G] Almeno [D]di' se il viaggio e' u[C]nico[Am]
[G]e se c'e' il [D]sole di l[C] [Am]
[G]se stai ridend[D]o io n[C]on mi offen[Am]do
per[G]o', [D] perc[C]h?
perch[C]?
Perc[D]he'
nemmeno una risposta ai [Am]miei perch[C]?
Perc[D]h
non mi fai fare almeno un [Am]giro
col tuo [C]bel gilet?
[G]Hai un mo[D]mento Di[C]o?
[Am]No, perche' [G]sono qua
[D]insomma ci sar[C]ei anch'io[D4].[D]
[G]Hai un mo[D]mento Di[C]o?
O [Am]te o chi per [G]te
avete un [D]attimo per [C]me?
[G]Eeee[D]eeee[C]eeee[Am]ee
(Ripete il giro G D C Am e, gradatamente
sfuma nell'intro concludendo sul G )
Credits: this tablature is the english chord version of this one
http://tabs.ultimate-guitar.com/l/ligabue/hai_un_momento_dio_tab.htm

Important: The song above is NOT stored on the Chordie server. The original song is hosted at www.guitaretab.com. Chordie works as a search engine and provides on-the-fly formatting. Chordie does not index songs against artists'/composers' will. To remove this song please click here.

Text color:
Chord color:
Chord grids: 
Font size:    
Page size: 

Am Bb C D D4 F G
Rate #1 of 9 versions

Login - add to songbook

SHARE PAGE  



You need to log in to post comments