Guitar Tabs, Chords and Lyrics
Major upgrade!! After one year development the new version of Chordie is now online! Please give feedback.


I Never Dreamed  Lynyrd Skynyrd

Submitted by sxdx79 on 7/28/04 8:40 PM
band: lynyrd skynyrd
song: i never dreamed
cd: the essential lynyrd skynyrd
Tuning normal.
Key: h hammer on () ghost
s slide p pull off
Riff 1
Let ring . . . . . .
Bb C Bb F |
 
 --------------------|-------------||
 --------------------|-------------||
 -----3-----5----3---|-3-----------||
 -----3-----5----3---|-3------3----||
 -----1p0---3----1p0-|-1p0----3----||
 ---------3----------|-----3--1----||

Riff 2 Riff 3
(Rhythm) (Rhythm)
[Bb] [C] [Dmi] [Bb] [C] [Dmi] [Ami]  
 
 --------------------|--1-----------|| --------------------|--5------5----||
 --------------------|--6-----------|| --------------------|--6------5----||
 ---3------5---------|--7-----------|| ---3------5---------|--7------5----||
 ---3------5---------|--7-----------|| ---3------5---------|--7------7----||
 ---1p0----3---------|--5-----------|| ---1p0----3---------|--5------7----||
 -------3------------|--------------|| -------3------------|---------5----||

Riff 4
[Bb] [F] [F5]  
 
 ------------------------------||
 ------------------------------||
 ----3---(2)-------------------||
 ---3----3------3----------0s--||
 --1----0-------3----0h1-3---5-|| continue Dmi (5th fret)
 ------------3--1--------------||

Riff 5 - right hand "harph" playing
Let ring . . . . . . . . . . .
Bb F F5 |
 
 -------------------1---------||
 -----------------------------||
 ----3---2--0------2----------||
 ---3---3---------3-----------||
 --1---0---------3------------||
 ---------3-----1-------------||

*=============================================================================*
| | | | |
Intro: Riff1 G# Bb F (Dmi)
Riff1 G# Bb F (Dmi)
Riff1 G# Bb F (Dmi)
Riff1 G# C
Riff2 Riff3
Riff4
[Dmi] [Ami] [Bb] [F] 
[Dmi]Dmi [C]C [Bb]Riff5 [C]Riff5
[Bb] [C#] [F] [Dmi7] [(] 

Important: The song above is NOT stored on the Chordie server. The original song is hosted at www.guitaretab.com. Chordie works as a search engine and provides on-the-fly formatting. Chordie does not index songs against artists'/composers' will. To remove this song please click here.

Text color:
Chord color:
Chord grids: 
Font size:    
Page size: 

Bb C C# F F5
Rate #1 of 7 versions

Login - add to songbook

SHARE PAGE  




You need to log in to post comments