Guitar Tabs, Chords and Lyrics
Server problems seems to be fixed. Chordie has been experiencing problems with songs disappearing. These issues now seems to be fixed, but still verifying the fix. If you find anything strange, please email admin@chordie.com.


Wolves   Machine Head

 
 |--------------|----------|-----------------|----------|-----------------|
 |--------------|----------|-----------------|----------|-----------------|
 |--------------|----------|-----------------|----------|-----------------|
 |--------------|-5--------|-(5)-------------|-5--------|-8---------------|
 |------6---4-3-|-5--------|-(5)-----6---4-3-|-5--------|-8-----6---4-3---|
 |----3---3-----|-3--------|-(3)---3---3-----|-3--------|-6---3---3-------|

 


 


 PM


 

 
 |----------|-----------------|----------|----------|----------|
 |----------|-----------------|----------|----------|----------|
 |----------|-----------------|----------|----------|----------|
 |-5--------|-(5)-------------|-5--------|-8--------|-4--------|
 |-5--------|-(5)-----6---4-3-|-5--------|-8--------|-4--------|
 |-3--------|-(3)---3---3-----|-3--------|-6--------|-2--------|

 


 


 Main Riff


 

 
 PM--------|
 |-----------------|-----------------|-----------------|---------------------|
 |-----------------|-----------------|-----------------|---------------------|
 |-----------------|-----------------|-----------------|-3-----3-------------|
 |-5---------6---5-|-----------------|-5---------6---5-|---3-----------------|
 |-----------------|---------6---4-3-|-----------------|---------6-6-6-6-6-6-|
 |---0-1-2-3---3---|-3-0-1-2---3-----|---0-1-2-3---3---|-----6---4-4-4-4-4-4-|
 PM--------|
 |-----------------|-----------------|-----------------|---------------------|
 |-----------------|-----------------|-----------------|---------------------|
 |-----------------|-----------------|-----------------|---------------------|
 |-5---------6---5-|-----------------|-5---------6---5-|---------------------|
 |-----------------|---------6---4-3-|-----------------|---------6-6-6-6-6-6-|
 |---0-1-2-3---3---|-3-0-1-2---3-----|---0-1-2-3---3---|-3-0-1-2-4-4-4-4-4-4-|

 


 


 Gtr I


 

 
 |------------------|---------------------|-----------------------------------------|
 |------------------|---------------------|-----------------------------------------|
 |------------------|---------------------|-----------------------------------------|
 |--5---------6---5-|---------------------|-5-------------------------6-------5-----|
 |------------------|------------6----4-3-|-----------------------------------------|
 |----0-1-2-3---3---|---3--0-1-2---3------|-------0-----1-2-----3-------3-----------|

 


 |


 | Gtr II


 | / |


 

 
 |------------------|---------------------|-----------------------------------------|
 |-12---------------|-(12)-----------12---|-----------------------------------------|
 |------------------|---------------------|-5b6==(5)r-3---5b6==(5)r-3---5b6==(5)r-3-|
 |------------------|---------------------|-------------5-------------5-------------|
 |------------------|---------------------|-----------------------------------------|
 |------------------|---------------------|-----------------------------------------|
 PM---------------|
 |-------------------------------------------|
 |-------------------------------------------|
 |-3---------------3-------------------------|
 |---3---------------------------------------|
 |---------------------6----6-6---6---6-6----|
 |---------6-----------4----4-4---4---4-4----|

 


 |


 

 
 |-----------------------/8-----8---8--------|
 |-------------------------------------------|
 |---5b6==(5)r-3-----5-----------------------|
 |-5-------------5---------------------------|
 |-------------------------------------------|
 |-------------------------------------------|
 |-------------------------------------------------|-------------------------------------------------|
 |-------------------------------------------------|-------------------------------------------------|
 |-------------------------------------------------|-------------------------------------------------|
 |--5-----------------------------6-----------5----|-------------------------------------------------|
 |-------------------------------------------------|--------------------------6-----------4-----3----|
 |--------0-----1-----2-----3-----------3----------|--3-----0-----1-----2-----------3----------------|

 


 |


 

 
 |-16-15-13-15-16-15-13-15-18-15-13-15-20-15-13-15-|-16-15-13-15-16-15-13-15-18-15-13-15-20-15-13-15-|
 |-------------------------------------------------|-------------------------------------------------|
 |-------------------------------------------------|-------------------------------------------------|
 |-------------------------------------------------|-------------------------------------------------|
 |-------------------------------------------------|-------------------------------------------------|
 |-------------------------------------------------|-------------------------------------------------|
 PM-------------|
 |-------------------------------------------------|----------------------------------|
 |-------------------------------------------------|----------------------------------|
 |-------------------------------------------------|----------------------------------|
 |--5-----------------------------6-----------5----|----------------------------------|
 |-------------------------------------------------|--------------6--6--6--6--6--6----|
 |--------0-----1-----2-----3-----------3----------|--3--0--1--2--4--4--4--4--4--4----|

 


 |


 

 
 |-22-15-13-15-13-15-22-15-13-15-13-15-22-15-13-15-|-13-15-22-15-13-15-13-15-15\------|
 |-------------------------------------------------|----------------------------------|
 |-------------------------------------------------|----------------------------------|
 |-------------------------------------------------|----------------------------------|
 |-------------------------------------------------|----------------------------------|
 |-------------------------------------------------|----------------------------------|

 


 


 Pre-Verse


 

 
 PM-------------------------------------------------
 |-------------------------|-------------------------|
 |-------------------------|-------------------------|
 |-------------------------|-------------------------|
 |-------------------------|-------------------------|
 |-4-4-4-4-4-4-4-4-4-4-4-4-|-4-4-4-4-4-4-4-4-4-4-4-4-|
 |-2-2-2-2-2-2-2-2-2-2-2-2-|-2-2-2-2-2-2-2-2-2-2-2-2-|

 


 |


 

 
 |-------------------------|-------------------------|
 |-------------------------|-------------------------|
 |-------------------------|-------------------------|
 |-------------------------|-------------------------|
 |-4-----------4-----------|---------4---4-----------|
 |-2-----------2-----------|---------2---2-----------|
 -------------------------------------------------|
 |-------------------------|----------------------------|
 |-------------------------|----------------------------|
 |-------------------------|----------------------------|
 |-------------------------|----------------------------|
 |-4-4-4-4-4-4-4-4-4-4-4-4-|-4-4-4-4-4-4-4-4-4-4-4-4----|
 |-2-2-2-2-2-2-2-2-2-2-2-2-|-2-2-2-2-2-2-2-2-2-2-2-2----|

 


 |


 

 
 |-------------------------|----------------------------|
 |-------------------------|----------------------------|
 |-------------------------|----------------------------|
 |-------------------------|----------------------------|
 |-4-----------4-----------|----------------------------|
 |-2-----------2-----------|----------------------------|

 


 


 Verse


 Gtrs I, II


 

 
 PM----------|
 ||------------------|---------------------|
 ||o-----------------|---------------------|
 ||------------------|---------------------|
 ||------------------|---------------------|
 ||o-5---3-6-5---8-7-|-5-7-2---2-2-2-2-2-2-|
 ||--3-0-1-4-3-0-6-5-|-3-5-0-0-0-0-0-0-0-0-|
 PM----------|

 


 4x


 

 
 |-----------------|-----------------------||
 |-----------------|----------------------o||
 |-----------------|-----------------------||
 |-----------------|-----------------------||
 |-5---3-6-5---8-7-|-5-7-3---4-4-4-5-5-5--o||
 |-3-0-1-4-3-0-6-5-|-3-5-1-1-2-2-2-3-3-3---||

 


 


 ~~~


 

 
 ||------------------|-----------------|-----------------|----------------||
 ||o-----------------|-----------------|-----------------|---------------o||
 ||------------------|-----------------|-----------------|----------------||
 ||--4---------------|-----------------|-4---------------|---------[5]----||
 ||o-4-4-4-4-4-5---4-|---3-2-0-2-0-----|-4-4-4-4-4-5---4-|---3-2-0-------o||
 ||--2-2-2-2-2-2-2-2-|-2-----------2-0-|-2-2-2-2-2-2-2-2-|-2--------------||

 


 


 Gtr I


 

 
 PM----| PM----| PM| PM----| PM-----| PM|
 ||----------------------------------|---------------------------------------||
 ||o---------------------------------|--------------------------------------o||
 ||----------3-----------3-------3---|-----------3------------3--------3-----||
 ||--3-3-3-3-3---3-3-3-3-3---3-3-3---|--3-3-3-3--3---3-3--3-3-3----3-3-3-----||
 ||o-1-1-1-1-1---1-1-1-1-1---1-1-1---|--1-1-1-1--1---1-1--1-1-1----1-1-1----o||
 ||----------------------------------|---------------------------------------||

 


 |


 | Gtr II


 | T T T T T T T T


 

 
 ||----------------------------------|---------------------------------------||
 ||o---------------------------------|--------------------------------------o||
 ||--9p7p3h7-9p7p3h7-9p7p3h7-9p7p3h7-|-10p7p3h7-10p7p3h7-10p7p3h7-10p7p3h7---||
 ||----------------------------------|---------------------------------------||
 ||o---------------------------------|--------------------------------------o||
 ||----------------------------------|---------------------------------------||
 PM-----| PM------| PM|
 ||----------------------------------------------|
 ||o---------------------------------------------|
 ||--------------3---------------3----------3----|
 ||---3--3-3--3--3----3--3--3--3-3-----3--3-3----|
 ||o--1--1-1--1--1----1--1--1--1-1-----1--1-1----|
 ||----------------------------------------------|

 


 |


 | T T T T


 

 
 ||--12p10p6h10-12p10p6h10-12p10p6h10-12p10p6h10-|
 ||o---------------------------------------------|
 ||----------------------------------------------|
 ||----------------------------------------------|
 ||o---------------------------------------------|
 ||----------------------------------------------|
 PM-----| PM------| PM|
 |-----------------------------------------------||
 |----------------------------------------------o||
 |-------------3---------------3----------3------||
 |--3--3-3--3--3----3--3--3--3-3-----3--3-3------||
 |--1--1-1--1--1----1--1--1--1-1-----1--1-1-----o||
 |-----------------------------------------------||

 


 |


 | T T T T


 

 
 |-13p10p6h10-13p10p6h10-13p10p6h10-13p10p6h10---||
 |----------------------------------------------o||
 |-----------------------------------------------||
 |-----------------------------------------------||
 |----------------------------------------------o||
 |-----------------------------------------------||

 


 


 T T T T T T T T


 

 
 ||----------------------------------|-----------------------------------||
 ||o-8p6p2h6-8p6p2h6-8p6p2h6-8p6p2h6-|-9p6p2h6-9p6p2h6-9p6p2h6-9p6p2h6--o||
 ||----------------------------------|-----------------------------------||
 ||----------------------------------|-----------------------------------||
 ||o---------------------------------|----------------------------------o||
 ||----------------------------------|-----------------------------------||

 


 |


 | T T T T T T T T


 

 
 ||----------------------------------|-----------------------------------||
 ||o-8p6p2h6-8p6p2h6-8p6p2h6-8p6p2h6-|-9p6p2h6-9p6p2h6-9p6p2h6-9p6p2h6--o||
 ||----------------------------------|-----------------------------------||
 ||----------------------------------|-----------------------------------||
 ||o---------------------------------|----------------------------------o||
 ||----------------------------------|-----------------------------------||

 


 


 T T T T


 

 
 |---------------------------------------------|
 |--8p=6p2h=6--8p=6p2h=6--8p=6p2h=6--8p=6p2h=6-|
 |---------------------------------------------|
 |---------------------------------------------|
 |---------------------------------------------|
 |---------------------------------------------|

 


 |


 | T T T T


 |-15p13p9h13-15p13p9h13-15p13p9h13-15p13p9h13-|


 

 
 |---------------------------------------------|
 |---------------------------------------------|
 |---------------------------------------------|
 |---------------------------------------------|
 |---------------------------------------------|

 


 


 T T T T


 

 
 |-----------------------------------------------|
 |--9p=6p2h=6--9p=6p2h=6--9p=6p2h=6--9p=6p2h=6---|
 |-----------------------------------------------|
 |-----------------------------------------------|
 |-----------------------------------------------|
 |-----------------------------------------------|

 


 |


 | T T T T


 

 
 |-16p13p9h13-16p13p9h13-16p13p9h13-16p13p9h13---|
 |-----------------------------------------------|
 |-----------------------------------------------|
 |-----------------------------------------------|
 |-----------------------------------------------|
 |-----------------------------------------------|

 


 


 T T T T


 

 
 |---------------------------------------------|-------|
 |--8p=6p2h=6--9p=6p2h=6--8p=6p2h=6--9p=6p2h=6-|-------|
 |---------------------------------------------|-------|
 |---------------------------------------------|-x\----|
 |---------------------------------------------|-x\----|
 |---------------------------------------------|-x\----|

 


 |


 | T T T T


 

 
 |-15p13p9h13-16p13p9h13-15p13p9h13-16p13p9h13-|-------|
 |---------------------------------------------|-------|
 |---------------------------------------------|-------|
 |---------------------------------------------|-x\----|
 |---------------------------------------------|-x\----|
 |---------------------------------------------|-x\----|

 


 


 Chorus


 Gtrs I, II


 

 
 PM--------|
 |-----------------|-----------------|-----------------|---------------------|
 |-----------------|-----------------|-----------------|---------------------|
 |-----------------|-----------------|-----------------|-3-----3-------------|
 |-5---------6---5-|-----------------|-5---------6---5-|---3-----------------|
 |-----------------|---------6---4-3-|-----------------|---------6-6-6-6-6-6-|
 |---0-1-2-3---3---|-3-0-1-2---3-----|---0-1-2-3---3---|-----6---4-4-4-4-4-4-|
 PM--------|
 |-----------------|-----------------|-----------------|---------------------|
 |-----------------|-----------------|-----------------|---------------------|
 |-----------------|-----------------|-----------------|---------------------|
 |-5---------6---5-|-----------------|-5---------6---5-|---------------------|
 |-----------------|---------6---4-3-|-----------------|---------6-6-6-6-6-6-|
 |---0-1-2-3---3---|-3-0-1-2---3-----|---0-1-2-3---3---|-3-0-1-2-4-4-4-4-4-4-|

 


 


 Interlude


 Gtr I


 PM PM


 

 
 |--------------|----------------|--------------|----------------|
 |--------------|----------------|--------------|----------------|
 |--------------|----------------|--------------|----------------|
 |--------------|----------2--4--|-/5--4-----2--|-(2)-2-4--5--7--|
 |----------/3--|-(3)-3-5--------|--------5-----|----------------|
 |-0---0-3------|----------------|--------------|----------------|

 


 |


 | Gtr II


 | PM PM


 

 
 |--------------|----------------|--------------|----------------|
 |--------------|----------------|--------------|----------------|
 |--------------|-------------2--|-/4--2--------|----------4--7--|
 |--------------|-------4--5-----|--------4--5--|-(5)-5-7--------|
 |----------/3--|-(3)-3----------|--------------|----------------|
 |-0---0-3------|----------------|--------------|----------------|

 


 


 PM PM


 

 
 |--------------|----------------|-/12--(12)-10-------|---------------------|
 |--------------|----------------|----------------12--|-(12)-12-/13--10\----|
 |-/4-----------|-------------7--|--------------------|---------------------|
 |-----7--4--5--|-(5)-5-7--9-----|--------------------|---------------------|
 |--------------|----------------|--------------------|---------------------|
 |--------------|----------------|--------------------|---------------------|

 


 |


 | PM


 

 
 |--------------|-------------7--|-/15-------14-------|---------------------|
 |-/8--7--------|-------7--8-----|----------------15--|-(15)-15-/17--13\----|
 |--------7--9--|-(9)-9----------|--------------------|---------------------|
 |--------------|----------------|--------------------|---------------------|
 |--------------|----------------|--------------------|---------------------|
 |--------------|----------------|--------------------|---------------------|

 


 


 PM PM


 

 
 |--------------|----------------|--------------|----------------|
 |--------------|----------------|-/3-----------|-------------7--|
 |--------------|-------2--4--5--|-----5--2--4--|-(4)-4-5--7-----|
 |--------------|----------------|--------------|----------------|
 |----------/3--|-(3)-3----------|--------------|----------------|
 |-0---0-3------|----------------|--------------|----------------|

 


 |


 | PM PM


 

 
 |--------------|----------------|--------------|----------------|
 |--------------|----------------|--------------|----------------|
 |--------------|-------------2--|-/4--2--------|----------4--7--|
 |--------------|-------4--5-----|--------4--5--|-(5)-5-7--------|
 |----------/3--|-(3)-3----------|--------------|----------------|
 |-0---0-3------|----------------|--------------|----------------|

 


 


 PM


 

 
 |-/7--5--------|---------------10--|-/19---17-------|---------------------|
 |--------7--8--|-(8)-8-10--12------|------------19--|-(19)-19-/20--17\----|
 |--------------|-------------------|----------------|---------------------|
 |--------------|-------------------|----------------|---------------------|
 |--------------|-------------------|----------------|---------------------|
 |--------------|-------------------|----------------|---------------------|

 


 |


 | PM


 

 
 |--------------|----------------7--|-/15---14-------|---------------------|
 |-/8--7--------|--------7---8------|------------15--|-(15)-15-/17--13\----|
 |--------7--9--|-(9)-9-------------|----------------|---------------------|
 |--------------|-------------------|----------------|---------------------|
 |--------------|-------------------|----------------|---------------------|
 |--------------|-------------------|----------------|---------------------|
 |--------------------|-----------------------|
 |--------------------|-----------------------|
 |--------------------|-----------------------|
 |---4----------------|--(4)------------------|
 |---4----------------|--(4)------------------|
 |---2----------------|--(2)------------------|

 


 |


 

 
 |--------------------|-----------------------|
 |--------------------|-----------------------|
 |-/11---11-11-11-11--|-(11)-11-11-11-11--11--|
 |--/x----x--x--x--x--|--(x)--x--x--x--x---x--|
 |--/9----9--9--9--9--|--(9)--9--9--9--9---9--|
 |--------------------|-----------------------|
 |---------------------|-----------------------|
 |---------------------|-----------------------|
 |---------------------|-----------------------|
 |--(4)----------------|--(4)------------------|
 |--(4)----------------|--(4)------------------|
 |--(2)----------------|--(2)------------------|

 


 |


 

 
 |---------------------|-----------------------|
 |---------------------|-----------------------|
 |-/12----12-12-12-10--|-(10)-10-10-10-10--10--|
 |--/x-----x--x--x--x--|--(x)--x--x--x--x---x--|
 |-/10----10-10-10--8--|--(8)--8--8--8--8---8--|
 |---------------------|-----------------------|
 |--------------------|-----------------------|
 |--------------------|-----------------------|
 |--------------------|-----------------------|
 |---4----------------|--(4)------------------|
 |---4----------------|--(4)------------------|
 |---2----------------|--(2)------------------|

 


 |


 

 
 |--------------------|-----------------------|
 |--------------------|-----------------------|
 |-/11---11-11-11-11--|-(11)-11-11-11-11--11--|
 |--/x----x--x--x--x--|--(x)--x--x--x--x---x--|
 |--/9----9--9--9--9--|--(9)--9--9--9--9---9--|
 |--------------------|-----------------------|
 |---------------------|----------------x-x----x-|
 |---------------------|----------------x-x----x-|
 |---------------------|----------------x-x----x-|
 |--(4)----------------|--(4)-----------x-x----x-|
 |--(4)----------------|--(4)-----------x-x----x-|
 |--(2)----------------|--(2)-----------x-x----x-|

 


 |


 

 
 |---------------------|-------------------------|
 |---------------------|-------------------------|
 |-/12----12-12-12-10--|-(10)-10-10-10-10---10---|
 |--/x-----x--x--x--x--|--(x)--x--x--x--x----x---|
 |-/10----10-10-10--8--|--(8)--8--8--8--8----8---|
 |---------------------|-------------------------|
 |--------------------|-----------------------|
 |--------------------|-----------------------|
 |--------------------|-----------------------|
 |--/4----4--x--x--4--|--(4)--4--x--x--4---4--|
 |--/4----4--x--x--4--|--(4)--4--x--x--4---4--|
 |--/2----2--x--x--2--|--(2)--2--x--x--2---2--|

 


 |


 

 
 |--------------------|-----------------------|
 |--------------------|-----------------------|
 |-/11---11-11-11-11--|-(11)-11-11-11-11--11--|
 |--/x----x--x--x--x--|--(x)--x--x--x--x---x--|
 |--/9----9--9--9--9--|--(9)--9--9--9--9---9--|
 |--------------------|-----------------------|
 |--------------------|-------------------------|
 |--------------------|-------------------------|
 |--------------------|-------------------------|
 |--/5----5--x--x--3--|--(3)--3--x--x--3---3----|
 |--/5----5--x--x--3--|--(3)--3--x--x--3---3----|
 |--/3----3--x--x--1--|--(1)--1--x--x--1---1----|

 


 |


 

 
 |--------------------|-------------------------|
 |--------------------|-------------------------|
 |-/12---12-12-12-10--|-(10)-10-10-10-10--10----|
 |--/x----x--x--x--x--|--(x)--x--x--x--x---x----|
 |-/10---10-10-10--8--|--(8)--8--8--8--8---8----|
 |--------------------|-------------------------|
 |--------------------|-----------------------|
 |--------------------|-----------------------|
 |--------------------|-----------------------|
 |--/4----4--x--x--4--|--(4)--4--x--x--4---4--|
 |--/4----4--x--x--4--|--(4)--4--x--x--4---4--|
 |--/2----2--x--x--2--|--(2)--2--x--x--2---2--|

 


 |


 

 
 |--------------------|-----------------------|
 |--------------------|-----------------------|
 |-/11---11-11-11-11--|-(11)-11-11-11-11--11--|
 |--/x----x--x--x--x--|--(x)--x--x--x--x---x--|
 |--/9----9--9--9--9--|--(9)--9--9--9--9---9--|
 |--------------------|-----------------------|
 PM------------|
 |--------------------|--------------------------|
 |--------------------|--------------------------|
 |--------------------|--------------------------|
 |--/5----5--x--x--3--|--(3)--3--3--3--3--3--3---|
 |--/5----5--x--x--3--|--(3)--3--3--3--3--3--3---|
 |--/3----3--x--x--1--|--(1)--1--1--1--1--1--1-2-|

 


 |


 

 
 |--------------------|--------------------------|
 |--------------------|--------------------------|
 |-/12---12-12-12-10--|-(10)-10-10-10-10-10-10---|
 |--/x----x--x--x--x--|--(x)--x--x--x--x--x--x---|
 |-/10---10-10-10--8--|--(8)--8--8--8--8--8--8---|
 |--------------------|------------------------2-|

 


 


 Breakdown


 Q=160


 

 
 ||--------------------|-------------------|
 ||o-------------------|-------------------|
 ||------------2-------|-----------2-4-5---|
 ||------5-4-5---5-2---|-----5-4-5---------|
 ||o-------------------|-------------------|
 ||--(2)-------------2-|-(2)-------------2-|

 


 |


 

 
 ||--------------------|-------------------|
 ||o-------------------|-------------------|
 ||------------2-------|-----------2-4-5---|
 ||------5-4-5---5-2---|-----5-4-5---------|
 ||o-------------------|-------------------|
 ||--(2)-------------2-|-(2)-------------2-|
 |-------------------|------------------||
 |-------------------|-----------------o||
 |-----------2-------|------------------||
 |-----5-4-5---5-2-5-|-(5)-2--8--7------||
 |-----------------5-|-(5)-2--8--7-----o||
 |-(2)-------------3-|-(3)-0--6--5--2---||

 


 |


 

 
 |-------------------|------------------||
 |-------------------|-----------------o||
 |-----------2-------|------------------||
 |-----5-4-5---5-2-5-|-(5)-2--8--7------||
 |-----------------5-|-(5)-2--8--7-----o||
 |-(2)-------------3-|-(3)-0--6--5--2---||
 ||--------------------|-------------------|
 ||o-------------------|-------------------|
 ||------------2-------|-----------2-4-5---|
 ||------5-4-5---5-2---|-----5-4-5---------|
 ||o-------------------|-------------------|
 ||--(2)-------------2-|-(2)-------------2-|

 


 |


 

 
 ||--------------------|-------------2-3---|
 ||o-----3-2-3-5-3-0---|-----3-2-3-5-------|
 ||--------------------|-------------------|
 ||--------------------|-------------------|
 ||o-------------------|-------------------|
 ||--(2)-------------2-|-(2)-------------2-|
 |-------------------|------------------||
 |-------------------|-----------------o||
 |-----------2-------|------------------||
 |-----5-4-5---5-2-5-|-(5)-2--8--7------||
 |-----------------5-|-(5)-2--8--7-----o||
 |-(2)-------------3-|-(3)-0--6--5--2---||

 


 |


 

 
 |-------------------|------------------||
 |-----3-2-3-5-3-0---|-----------------o||
 |-------------------|------------------||
 |-----------------5-|-(5)-2--8--7------||
 |-----------------5-|-(5)-2--8--7-----o||
 |-(2)-------------3-|-(3)-0--6--5--2---||
 |------------|-----|
 |------------|-----|
 |------------|-----|
 |------------|-----|
 |------------|-----|
 |-(2)--------|-----|

 


 |


 

 
 |------------|-----|
 |------------|-----|
 |------------|-----|
 |------------|-----|
 |------------|-----|
 |-(2)--------|-----|

 


 


 Gtrs I, II


 

 
 PM------| PM--------------| PM----------|
 |------------------|--------------------------|-------------------------|
 |------------------|--------------------------|-------------------------|
 |-----------12\9\8-|-------------------12\9\8-|---------------12\9\8----|
 |------------x-x-x-|--------------------x-x-x-|----------------x-x-x----|
 |-----------10\7\6-|-------------------10\7\6-|---------------10\7\6----|
 |-0-0-0-0-0--------|-0-0-0-0-0-0-0-0-0--------|-0-0-0-0-0-0-0-----------|

 


 


 PM ~~~~~~~~~PM----|


 

 
 ||--------------------|--------------------|
 ||o-------------------|--------------------|
 ||--------------------|-------------12\9\8-|
 ||----7p5-8-----------|--------------x-x-x-|
 ||o-------------------|-------------10\7\6-|
 ||--0-------0-5-3-[6]-|-(6)-0-0-0-0--------|
 PM--------------| PM----------|

 


 3x


 

 
 |--------------------------|-------------------------||
 |--------------------------|------------------------o||
 |-------------------12\9\8-|---------------12\9\8----||
 |--------------------x-x-x-|----------------x-x-x----||
 |-------------------10\7\6-|---------------10\7\6---o||
 |-0-0-0-0-0-0-0-0-0--------|-0-0-0-0-0-0-0-----------||
 PM ~~~~~~~~~ PM--------------------------------|
 ||--------------------|----------------|-------------|-------------||
 ||o-------------------|----------------|-------------|------------o||
 ||--------------------|----------------|-------------|-------------||
 ||----7p5-8-----------|----------------|-------------|-------------||
 ||o-------------------|-------2--2--2--|-2--2--2--2--|-2--2--2--2-o||
 ||--0-------0-5-3-[6]-|-(6)-0-0--0--0--|-0--0--0--0--|-0--0--0--0--||

 


 


 PM


 

 
 |-----------------||--------------------|
 |-----------------||o-------------------|
 |-----------------||------------2-------|
 |---7p5-8---------||------5-4-5---5-2---|
 |-----------------||o-------------------|
 |-0-------0-5-3-2-||--(2)-------------2-|
 |-------------------|-------------------|-----------------||
 |-------------------|-------------------|----------------o||
 |-----------2-4-5---|-----------2-------|-----------------||
 |-----5-4-5---------|-----5-4-5---5-2-5-|-(5)-2--8--7-----||
 |-------------------|-----------------5-|-(5)-2--8--7----o||
 |-(2)-------------2-|-(2)-------------3-|-(3)-0--6--5--2--||

 


 


 Gtr I


 

 
 ||--------------------|-------------------|
 ||o-------------------|-------------------|
 ||------------2-------|-----------2-4-5---|
 ||------5-4-5---5-2---|-----5-4-5---------|
 ||o-------------------|-------------------|
 ||--(2)-------------2-|-(2)-------------2-|

 


 |


 | Gtr II


 

 
 ||--------------------|-------------2-3---|
 ||o-----3-2-3-5-3-0---|-----3-2-3-5-------|
 ||--------------------|-------------------|
 ||--------------------|-------------------|
 ||o-------------------|-------------------|
 ||--(2)-------------2-|-(2)-------------2-|
 |-------------------|------------------||
 |-------------------|-----------------o||
 |-----------2-------|------------------||
 |-----5-4-5---5-2-5-|-(5)-2--8--7------||
 |-----------------5-|-(5)-2--8--7-----o||
 |-(2)-------------3-|-(3)-0--6--5--2---||

 


 |


 

 
 |-------------------|------------------||
 |-----3-2-3-5-3-0---|-----------------o||
 |-------------------|------------------||
 |-----------------5-|-(5)-2--8--7------||
 |-----------------5-|-(5)-2--8--7-----o||
 |-(2)-------------3-|-(3)-0--6--5--2---||

 


 


 Breakdown 2


 Gtrs I, II


 

 
 |----------|------------|------------|--------|
 |----------|------------|------------|--------|
 |-8--------|-(8)--------|-(8)--------|-(8)----|
 |-8--------|-(8)--------|-(8)--------|-(8)----|
 |-6--------|-(6)--------|-(6)--------|-(6)----|
 |-6--------|-(6)--------|-(6)--------|-(6)----|

 


 


 Gtr I


 

 
 |---------------------------------|-----------------------------------|
 |---------------------------------|-----------------------------------|
 |---------------------------------|-----------------------------------|
 |---------------------------------|-----------------------------------|
 |---------------------------------|-----------------------------------|
 |-3h5-5-5-5-5-5-5-6p5-5-5-5-5-5-5-|--8p=5-5-5-5-5-5-5-6p5-5-5-5-5-5-5-|

 


 |


 | Gtr II


 

 
 |---------------------------------|-----------------------------------|
 |---------------------------------|-----------------------------------|
 |-8-------------------------------|-(8)-------------------------------|
 |-8-------------------------------|-(8)-------------------------------|
 |-6-------------------------------|-(6)-------------------------------|
 |-6-------------------------------|-(6)-------------------------------|
 |-----------------------------------|---------------------------|
 |-----------------------------------|---------------------------|
 |-----------------------------------|-------------------5-7-8---|
 |-----------------------------------|-------------------5-7-8---|
 |--6p=5-----------------------------|-------------------3-5-6---|
 |-------5-5-5-5-5-5-6p5-5-5-5-5-5-5-|--8p=5-5-5-5-5-5-5-------3-|

 


 |


 

 
 |-----------------------------------|---------------------------|
 |-----------------------------------|---------------------------|
 |-(8)-------------------------------|-(8)-----------------------|
 |-(8)-------------------------------|-(8)-----------------------|
 |-(6)-------------------------------|-(6)-----------------------|
 |-(6)-------------------------------|-(6)-----------------------|
 |---------------------------------|-----------------------------------|
 |---------------------------------|-----------------------------------|
 |---------------------------------|-----------------------------------|
 |---------------------------------|-----------------------------------|
 |---------------------------------|-----------------------------------|
 |-3h5-5-5-5-5-5-5-6p5-5-5-5-5-5-5-|-8p5-5-5-5-5-5-5-6p5-5-5-5-5-5-5---|

 


 |


 

 
 |---------------------------------|-----------------------------------|
 |---------------------------------|-----------------------------------|
 |---------------------------------|-----------------------------------|
 |-7-------------------------------|-----------------------------------|
 |-7-------------------------------|-----------------------------------|
 |-5-------------------------------|-----------------------------------|
 |---------------------------------|----------------------------|
 |---------------------------------|----------------------------|
 |---------------------------------|-----------------5-7-8------|
 |---------------------------------|-----------------5-7-8------|
 |-6p5-----------------------------|-----------------3-5-6------|
 |-----5-5-5-5-5-5-6p5-5-5-5-5-5-5-|-8p5-5-5-5-5-5-5-------3----|

 


 |


 

 
 |---------------------------------|----------------------------|
 |---------------------------------|----------------------------|
 |---------------------------------|-----------------5-7-8------|
 |---------------------------------|-----------------5-7-8------|
 |---------------------------------|-----------------3-5-6------|
 |---------------------------------|-----------------------3----|
 ||----------------------------------|----------------------------------|
 ||o---------------------------------|----------------------------------|
 ||----------------------------------|----------------------------------|
 ||----------------------------------|----------------------------------|
 ||o---------------------------------|----------------------------------|
 ||--3h5-5-5-5-5-5-5-6p5-5-5-5-5-5-5-|-8p5-5-5-5-5-5-5-6p5-5-5-5-5-5-5--|

 


 |


 

 
 ||----------------------------------|----------------------------------|
 ||o---------------------------------|----------------------------------|
 ||----------------------------------|----------------------------------|
 ||----------------------------------|----------------------------------|
 ||o---------------------------------|----------------------------------|
 ||--3h5-5-5-5-5-5-5-6p5-5-5-5-5-5-5-|-8p5-5-5-5-5-5-5-6p5-5-5-5-5-5-5--|
 |---------------------------------|--------------------------||
 |---------------------------------|-------------------------o||
 |---------------------------------|-----------------5-7-8----||
 |---------------------------------|-----------------5-7-8----||
 |-6p5-----------------------------|-----------------3-5-6---o||
 |-----5-5-5-5-5-5-6p5-5-5-5-5-5-5-|-8p5-5-5-5-5-5-5-------3--||

 


 |


 

 
 |---------------------------------|--------------------------||
 |---------------------------------|-------------------------o||
 |---------------------------------|-----------------5-7-8----||
 |---------------------------------|-----------------5-7-8----||
 |-6p5-----------------------------|-----------------3-5-6---o||
 |-----5-5-5-5-5-5-6p5-5-5-5-5-5-5-|-8p5-5-5-5-5-5-5-------3--||
 |---------------------------------|-----------------------------------|
 |---------------------------------|-----------------------------------|
 |---------------------------------|-----------------------------------|
 |---------------------------------|-----------------------------------|
 |---------------------------------|-----------------------------------|
 |-3h5-5-5-5-5-5-5-6p5-5-5-5-5-5-5-|-8p5-5-5-5-5-5-5-6p5-5-5-5-5-5-5---|

 


 |


 

 
 |---------------------------------|-----------------------------------|
 |---------------------------------|-----------------------------------|
 |---------------------------------|-----------------------------------|
 |---------------------------------|-----------------------------------|
 |---------------------------------|-----------------------------------|
 |-3h5-5-5-5-5-5-5-6p5-5-5-5-5-5-5-|-8p5-5-5-5-5-5-5-6p5-5-5-5-5-5-5---|
 |---------------------------------|---------------|
 |---------------------------------|---------------|
 |---------------------------------|-8--5--6--3----|
 |---------------------------------|-8--5--6--3----|
 |-6p5-----------------------------|-6--3--4--1----|
 |-----5-5-5-5-5-5-6p5-5-5-5-5-5-5-|---------------|

 


 |


 

 
 |---------------------------------|---------------|
 |---------------------------------|---------------|
 |---------------------------------|-8--5--6--3----|
 |---------------------------------|-8--5--6--3----|
 |-6p5-----------------------------|-6--3--4--1----|
 |-----5-5-5-5-5-5-6p5-5-5-5-5-5-5-|---------------|
 |---------------------------------|-----------------------------------|
 |---------------------------------|-----------------------------------|
 |---------------------------------|-----------------------------------|
 |---------------------------------|-----------------------------------|
 |---------------------------------|-----------------------------------|
 |-3h5-5-5-5-5-5-5-6p5-5-5-5-5-5-5-|-8p5-5-5-5-5-5-5-6p5-5-5-5-5-5-5---|

 


 |


 

 
 |---------------------------------|-----------------------------------|
 |---------------------------------|-----------------------------------|
 |---------------------------------|-----------------------------------|
 |---------------------------------|-----------------------------------|
 |---------------------------------|-----------------------------------|
 |-3h5-5-5-5-5-5-5-6p5-5-5-5-5-5-5-|-8p5-5-5-5-5-5-5-6p5-5-5-5-5-5-5---|
 |---------------------------------|------------------|
 |---------------------------------|------------------|
 |---------------------------------|------------------|
 |---------------------------------|-2----------------|
 |-6p5-----------------------------|-2----------------|
 |-----5-5-5-5-5-5-6p5-5-5-5-5-5-5-|-0----------------|

 


 |


 

 
 |---------------------------------|------------------|
 |---------------------------------|------------------|
 |---------------------------------|------5---5---5---|
 |---------------------------------|-2--2---2---2---3-|
 |-6p5-----------------------------|-2----------------|
 |-----5-5-5-5-5-5-6p5-5-5-5-5-5-5-|-0----------------|
 PM-------------------------------------------------
 |-------------------------|-------------------------|
 |-------------------------|-------------------------|
 |-------------------------|-------------------------|
 |-------------------------|-------------------------|
 |-2-2-2-2-2-2-2-2-2-2-2-2-|-2-2-2-2-2-2-2-2-2-2-2-2-|
 |-0-0-0-0-0-0-0-0-0-0-0-0-|-0-0-0-0-0-0-0-0-0-0-0-0-|

 


 |


 

 
 | PM-------------------------------------------------
 |-------------------------|-------------------------|
 |-------------------------|-------------------------|
 |-------------------------|-------------------------|
 |-------------------------|-------------------------|
 |-2-2-2-2-2-2-2-2-2-2-2-2-|-2-2-2-2-2-2-2-2-2-2-2-2-|
 |-0-0-0-0-0-0-0-0-0-0-0-0-|-0-0-0-0-0-0-0-0-0-0-0-0-|
 ---------------------------|
 |-------------------------|-----------------|
 |-------------------------|-----------------|
 |-------------------------|-----5---5---5---|
 |-------------------------|---2---2---2---3-|
 |-2-2-2-2-2-2-2-2-2-2-2-2-|-2---------------|
 |-0-0-0-0-0-0-0-0-0-0-0-0-|-0---------------|

 


 |


 

 
 |---------------------------|
 |-------------------------|-----------------|
 |-------------------------|-----------------|
 |-------------------------|-----5---5---5---|
 |-------------------------|---2---2---2---3-|
 |-2-2-2-2-2-2-2-2-2-2-2-2-|-2---------------|
 |-0-0-0-0-0-0-0-0-0-0-0-0-|-0---------------|
 PM-------------------------------------------------
 |-------------------------|-------------------------|
 |-------------------------|-------------------------|
 |-------------------------|-------------------------|
 |-------------------------|-------------------------|
 |-2-2-2-2-2-2-2-2-2-2-2-2-|-2-2-2-2-2-2-2-2-2-2-2-2-|
 |-0-0-0-0-0-0-0-0-0-0-0-0-|-0-0-0-0-0-0-0-0-0-0-0-0-|

 


 |


 

 
 | PM-------------------------------------------------
 |-------------------------|-------------------------|
 |-------------------------|-------------------------|
 |-------------------------|-------------------------|
 |-------------------------|-------------------------|
 |-2-2-2-2-2-2-2-2-2-2-2-2-|-2-2-2-2-2-2-2-2-2-2-2-2-|
 |-0-0-0-0-0-0-0-0-0-0-0-0-|-0-0-0-0-0-0-0-0-0-0-0-0-|

 


 


 /1_________|


 

 
 -----------------------|
 |-------------------------|---------------------|
 |-------------------------|---------------------|
 |-------------------------|-4---------(4)-------|
 |-------------------------|---------------------|
 |-2-2-2-2-2-2-2-2-2-2-2-2-|---------------------|
 |-0-0-0-0-0-0-0-0-0-0-0-0-|---------------------|

 


 |


 

 
 |---------------------------|
 |-------------------------|---------------------|
 |-------------------------|---------------------|
 |-------------------------|-------5----5----5---|
 |-------------------------|-----2---2-----2---3-|
 |-2-2-2-2-2-2-2-2-2-2-2-2-|-2-------------------|
 |-0-0-0-0-0-0-0-0-0-0-0-0-|-0-------------------|
 PM-------------------------------------------------
 |-------------------------|-------------------------|
 |-------------------------|-------------------------|
 |-------------------------|-------------------------|
 |-------------------------|-------------------------|
 |-2-2-2-2-2-2-2-2-2-2-2-2-|-2-2-2-2-2-2-2-2-2-2-2-2-|
 |-0-0-0-0-0-0-0-0-0-0-0-0-|-0-0-0-0-0-0-0-0-0-0-0-0-|

 


 |


 

 
 | PM-------------------------------------------------
 |-------------------------|-------------------------|
 |-------------------------|-------------------------|
 |-------------------------|-------------------------|
 |-------------------------|-------------------------|
 |-2-2-2-2-2-2-2-2-2-2-2-2-|-2-2-2-2-2-2-2-2-2-2-2-2-|
 |-0-0-0-0-0-0-0-0-0-0-0-0-|-0-0-0-0-0-0-0-0-0-0-0-0-|
 ---------------------------|
 |-------------------------|-----------------|
 |-------------------------|-----------------|
 |-------------------------|-----5---5---5---|
 |-------------------------|---2---2---2---3-|
 |-2-2-2-2-2-2-2-2-2-2-2-2-|-2---------------|
 |-0-0-0-0-0-0-0-0-0-0-0-0-|-0---------------|

 


 |


 

 
 |---------------------------|
 |-------------------------|-----------------|
 |-------------------------|-----------------|
 |-------------------------|-----5---5---5---|
 |-------------------------|---2---2---2---3-|
 |-2-2-2-2-2-2-2-2-2-2-2-2-|-2---------------|
 |-0-0-0-0-0-0-0-0-0-0-0-0-|-0---------------|
 PM-------------------------------------------------
 |-------------------------|-------------------------|
 |-------------------------|-------------------------|
 |-------------------------|-------------------------|
 |-------------------------|-------------------------|
 |-2-2-2-2-2-2-2-2-2-2-2-2-|-2-2-2-2-2-2-2-2-2-2-2-2-|
 |-0-0-0-0-0-0-0-0-0-0-0-0-|-0-0-0-0-0-0-0-0-0-0-0-0-|

 


 |


 

 
 | PM-------------------------------------------------
 |-------------------------|-------------------------|
 |-------------------------|-------------------------|
 |-------------------------|-------------------------|
 |-------------------------|-------------------------|
 |-2-2-2-2-2-2-2-2-2-2-2-2-|-2-2-2-2-2-2-2-2-2-2-2-2-|
 |-0-0-0-0-0-0-0-0-0-0-0-0-|-0-0-0-0-0-0-0-0-0-0-0-0-|
 -----------------------|
 |-------------------------|-------|
 |-------------------------|-------|
 |-------------------------|-------|
 |-------------------------|-x\----|
 |-2-2-2-2-2-2-2-2-2-2-2-2-|-x\----|
 |-0-0-0-0-0-0-0-0-0-0-0-0-|-x\----|

 


 |


 

 
 |-----------------------|
 |-------------------------|-------|
 |-------------------------|-------|
 |-------------------------|-------|
 |-------------------------|-x\----|
 |-2-2-2-2-2-2-2-2-2-2-2-2-|-x\----|
 |-0-0-0-0-0-0-0-0-0-0-0-0-|-x\----|

 


 


 Guitar Solo


 

 
 |-13b15======13-------13-----13-----13r======13-----|
 |---------------------------------------------------|
 |---------------------------------------------------|
 |---------------------------------------------------|
 |---------------------------------------------------|
 |---------------------------------------------------|

 


 |


 

 
 |---------------------------------------------------|
 |---------------------------------------------------|
 |---------------------------------------------------|
 |---------------------------------------------------|
 |---------------------------------------------------|
 |--0h====2-2----2-2-2----2-2--3p2-2----2-2-2----2-2-|
 |13b16======13-------13-----13-----13r======13-----|-19-15-19-15-19-15----15-19-15-19-15-19-15----15|
 |--------------------------------------------------|-------------------17----------------------17---|
 |--------------------------------------------------|------------------------------------------------|
 |--------------------------------------------------|------------------------------------------------|
 |--------------------------------------------------|------------------------------------------------|
 |--------------------------------------------------|------------------------------------------------|

 


 |


 

 
 |---------------------------------------------------|-----------------------------------------------|
 |--------------------------------------------------|------------------------------------------------|
 |--------------------------------------------------|------------------------------------------------|
 |--------------------------------------------------|------------------------------------------------|
 |--------------------------------------------------|--3p=2------------------------------------------|
 |-5-----2-2----2-2-2----2-2--3p2-2----2-2-2----2-2-|--------2--2--2--2--2--2--3p=2--2--2--2--2--2--2|

 


 


 ~~~~~~~~~~~~~~~~~~~~~~~~~~~~~~~~~~


 

 
 |-----------------------------------|------------------/7---------------|
 |-18-17-18-17-15-17-15-13-15\-------|-----------------------------------|
 |-----------------------------------|-/4--------------------------------|
 |-----------------------------------|-----------------------------------|
 |-----------------------------------|-----------------------------------|
 |-----------------------------------|-----------------------------------|

 


 |


 

 
 |-----------------------------------|-----------------------------------|
 |-----------------------------------|-----------------------------------|
 |-----------------------------------|-----------------------------------|
 |-----------------------------------|-----------------------------------|
 |--------------------------0--2-3---|-----------------------------------|
 |--5p=2--2--2--2--2--2--2---------0-|--0h2-2-2-2-2-2-2--3p2-2-2-2-2-2-2-|

 


 


 ~~~~~~~~~~~~~~~~~~~~~~~


 

 
 |------------------/11----------------|
 |-------------------------------------|
 |-/8----------------------------------|
 |-------------------------------------|
 |-------------------------------------|
 |-------------------------------------|

 


 |


 

 
 |-------------------------------------|
 |-------------------------------------|
 |-------------------------------------|
 |-------------------------------------|
 |-------------------------------------|
 |--5-2-2-2-2-2-2-2---3p2-2-2-2-2-2-2--|
 |-21-18----18-21-18-19-17-21-18----18-21-18-19-17-|
 |-------19----------------------19----------------|
 |-------------------------------------------------|
 |-------------------------------------------------|
 |-------------------------------------------------|
 |-------------------------------------------------|

 


 |


 

 
 |-------------------------------------------------|
 |-------------------------------------------------|
 |-------------------------------------------------|
 |-------------------------------------------------|
 |--3p=2-------------------------------------------|
 |--------2--2--2--2--2--2--3p=2--2--2--2--2--2--2-|


Important: The song above is NOT stored on the Chordie server. The original song is hosted at www.guitaretab.com. Chordie works as a search engine and provides on-the-fly formatting. Chordie does not index songs against artists'/composers' will. To remove this song please click here.

This song is displayed as text-only. Transposing and tuning is only available for chordpro-songs.
Rate #1 of 2 versions

Jango Player

Login - add to songbook

SHARE PAGE  



You need to log in to post comments