Guitar Tabs, Chords and Lyrics
Server problems seems to be fixed. Chordie has been experiencing problems with songs disappearing. These issues now seems to be fixed, but still verifying the fix. If you find anything strange, please email admin@chordie.com.


Now I Lay Thee Down   Machine Head

 
 ----------------------------------------------------------------------------

 


 


 Now I Lay Thee Down - Machine Head


 


 

 
 ----------------------------------------------------------------------------

 


 


 Tabbed by: Somebody Someone


 Email: antihero-777@hotmail.com


 


 Tuning: Drop B. (B F# B E G# C#) low to high


 


 Please rate and if theres any changes needed feel free to say!


 


 Both guitars play the same thing unless stated other wise.


 


 | / slide up


 | \ slide down


 | h hammer-on


 | p pull-off


 | ~ vibrato


 | ph pinched harmonic/squeal


 | nh natural harmonic


 | x Mute note


 | . palm mute


 | t tap note


 | bu bend up to note in ()


 | bd bend down to note in ()


 | " tremolo pick


 


 Intro


 [ x4 ] [ 1st, 2nd and 3rd times ] 


 

 
 C#|---18------------|-17------------|-15------------|-13----12----13-------|
 G#|------15--15--15-|----15--15--15-|----15--15--15-|----15----15----15----|
 E |-----------------|---------------|---------------|----------------------|
 B |-----------------|---------------|---------------|----------------------|
 F#|-----------------|---------------|---------------|----------------------|
 B |-----------------|---------------|---------------|----------------------|

 


 [ 4tb time ] 


 

 
 C#|-15--------------|-------------|
 G#|----15--15-------|-------------|
 E |-----------------|-5/8-8-8-8-8-|
 B |-----------------|-------------|
 F#|-----------------|-3/6-6-6-6-6-|
 B |------------0----|-------------|

 


 


 Main heavy riff


 


 [ x2


 

 
 C#|-----------|-----------|-----------|-------------|-----------|----------|
 G#|-----------|-----------|-----------|-------------|-----------|----------|
 E |-----------|-----------|-----------|-------------|-----------|----------|
 B |-----------|-----------|-----------|-------------|-----------|----------|
 F#|-----------|-----------|-----------|-------------|-----------|----------|
 B |-8-0--0--0-|-7-0--0--0-|-5-0--0--0-|-3-0-2-0-3-0-|-8-0--0--0-|-7-0--0--0|

 


 


 ]


 

 
 C#|-----------|-------------|
 G#|-----------|-------------|
 E |-----------|-5/8-8-8-8-8-|
 B |-----------|-------------|
 F#|-----------|-3/6-6-6-6-6-|
 B |-5-0--0--0-|-------------|

 


 


 Stabs


 


 

 
 C#|-----------|-----------|-----------|-------------|
 G#|-----------|-----------|-----------|-------------|
 E |-----------|-----------|-----------|-------------|
 B |-X-8--8--8-|-X-8--8--8-|-X-8--8--8-|-X-5-5-5-5-5-|
 F#|-X-6--6--6-|-X-6--6--6-|-X-6--6--6-|-X-3-3-3-3-3-|
 B |-X---------|-X---------|-X---------|-X-----------|

 


 


 Verse


 


 [ x2


 

 
 C#|-----------|-----------|-----------|-------------|-----------|----------|
 G#|-----------|-----------|-----------|-------------|-----------|----------|
 E |-----------|-----------|-----------|-------------|-----------|----------|
 B |-----------|-----------|-----------|-------------|-----------|----------|
 F#|-----------|-----------|-----------|-------------|-----------|----------|
 B |-8-0--0--0-|-7-0--0--0-|-5-0--0--0-|-3-0-2-0-3-0-|-8-0--0--0-|-7-0--0--0|

 


 . . . . . . . . . . . . . . . . . . . . . . . . . .


 ]


 

 
 C#|-----------|-------------|
 G#|-----------|-------------|
 E |-----------|-------------|
 B |-----------|-------------|
 F#|-----------|-3-6-6-6-6-6-|
 B |-5-0--0--0-|-------------|

 


 . . . . . . . . . .


 


 Stabs


 


 

 
 C#|-----------|-----------|-----------|-------------|
 G#|-----------|-----------|-----------|-------------|
 E |-----------|-----------|-----------|-------------|
 B |-X-8--8--8-|-X-8--8--8-|-X-8--8--8-|-X-5-5-5-5-5-|
 F#|-X-6--6--6-|-X-6--6--6-|-X-6--6--6-|-X-3-3-3-3-3-|
 B |-X---------|-X---------|-X---------|-X-----------|

 


 


 Chorus


 Guitar 1


 


 [ x3


 

 
 C#|--------------|----------------|----------------|---------------|
 G#|--------------|----------------|----------------|---------------|
 E |-7t2-9t2-10t2-|-12t2-10t2-12t2-|-14t3-12t3-10t3-|-12t3-10t3-5t2-|
 B |--------------|----------------|----------------|---------------|
 F#|--------------|----------------|----------------|---------------|
 B |--------------|----------------|----------------|---------------|

 


 


 Guitar 2


 


 

 
 C#|--------------|----------------|----------------|----------------|
 G#|--------------|----------------|----------------|----------------|
 E |--------------|-10-------------|-9--------------|----------------|
 B |-8------------|-8--------------|-8--------------|-7--------------|
 F#|-8------------|----------------|-8--------------|-9--------------|
 B |-8------------|----------------|-8--------------|-7--------------|

 


 


 Both guitars


 [ 1st and 2nd time ] 


 

 
 C#|-----------|-----------|-----------|-------------|
 G#|-----------|-----------|-----------|-------------|
 E |-----------|-----------|-----------|-------------|
 B |-----------|-----------|-----------|-------------|
 F#|-----------|-----------|-----------|--p---p---p--|
 B |-8-0--0--0-|-7-0--0--0-|-8-0--0--0-|-3-0-2-0-3-0-|

 


 


 [ 3rd time ] 


 

 
 C#|-----------|-----------|
 G#|-----------|-----------|
 E |-----------|-----------|
 B |-5---------|-----------|
 F#|-5---------|-----------|
 B |-5---------|-----------|

 


 


 Stabs


 


 

 
 C#|-----------|-----------|-----------|-------------|
 G#|-----------|-----------|-----------|-------------|
 E |-----------|-----------|-----------|-------------|
 B |-X-8--8--8-|-X-8--8--8-|-X-8--8--8-|-X-5-5-5-5-5-|
 F#|-X-6--6--6-|-X-6--6--6-|-X-6--6--6-|-X-3-3-3-3-3-|
 B |-X---------|-X---------|-X---------|-X-----------|

 


 


 Main heavy riff


 


 [ x2


 

 
 C#|-----------|-----------|-----------|-------------|-----------|----------|
 G#|-----------|-----------|-----------|-------------|-----------|----------|
 E |-----------|-----------|-----------|-------------|-----------|----------|
 B |-----------|-----------|-----------|-------------|-----------|----------|
 F#|-----------|-----------|-----------|-------------|-----------|----------|
 B |-8-0--0--0-|-7-0--0--0-|-5-0--0--0-|-3-0-2-0-3-0-|-8-0--0--0-|-7-0--0--0|

 


 


 ]


 

 
 C#|-----------|-------------|
 G#|-----------|-------------|
 E |-----------|-5/8-8-8-8-8-|
 B |-----------|-------------|
 F#|-----------|-3/6-6-6-6-6-|
 B |-5-0--0--0-|-------------|

 


 


 Verse


 


 [ x2


 

 
 C#|-----------|-----------|-----------|-------------|-----------|----------|
 G#|-----------|-----------|-----------|-------------|-----------|----------|
 E |-----------|-----------|-----------|-------------|-----------|----------|
 B |-----------|-----------|-----------|-------------|-----------|----------|
 F#|-----------|-----------|-----------|-------------|-----------|----------|
 B |-8-0--0--0-|-7-0--0--0-|-5-0--0--0-|-3-0-2-0-3-0-|-8-0--0--0-|-7-0--0--0|

 


 . . . . . . . . . . . . . . . . . . . . . . . . . .


 ]


 

 
 C#|-----------|-------------|
 G#|-----------|-------------|
 E |-----------|-------------|
 B |-----------|-------------|
 F#|-----------|-3-6-6-6-6-6-|
 B |-5-0--0--0-|-------------|

 


 . . . . . . . . . .


 


 Stabs


 


 

 
 C#|-----------|-----------|-----------|-------------|
 G#|-----------|-----------|-----------|-------------|
 E |-----------|-----------|-----------|-------------|
 B |-X-8--8--8-|-X-8--8--8-|-X-8--8--8-|-X-5-5-5-5-5-|
 F#|-X-6--6--6-|-X-6--6--6-|-X-6--6--6-|-X-3-3-3-3-3-|
 B |-X---------|-X---------|-X---------|-X-----------|

 


 


 Chorus


 Guitar 1


 


 [ x3


 

 
 C#|--------------|----------------|----------------|---------------|
 G#|--------------|----------------|----------------|---------------|
 E |-7t2-9t2-10t2-|-12t2-10t2-12t2-|-14t3-12t3-10t3-|-12t3-10t3-5t2-|
 B |--------------|----------------|----------------|---------------|
 F#|--------------|----------------|----------------|---------------|
 B |--------------|----------------|----------------|---------------|

 


 


 Guitar 2


 


 

 
 C#|--------------|----------------|----------------|----------------|
 G#|--------------|----------------|----------------|----------------|
 E |--------------|-10-------------|-9--------------|----------------|
 B |-8------------|-8--------------|-8--------------|-7--------------|
 F#|-8------------|----------------|-8--------------|-9--------------|
 B |-8------------|----------------|-8--------------|-7--------------|

 


 


 Both guitars


 [ 1st and 2nd time ] 


 

 
 C#|-----------|-----------|-----------|-------------|
 G#|-----------|-----------|-----------|-------------|
 E |-----------|-----------|-----------|-------------|
 B |-----------|-----------|-----------|-------------|
 F#|-----------|-----------|-----------|-------------|
 B |-8-0--0--0-|-7-0--0--0-|-8-0--0--0-|-3p0-2p0-3p0-|

 


 


 [ 3rd time ] 


 

 
 C#|-----------|-----------|
 G#|-----------|-----------|
 E |-----------|-----------|
 B |-5---------|-----------|
 F#|-5---------|-----------|
 B |-5---------|-----------|

 


 


 Stabs


 


 

 
 C#|-----------|-----------|-----------|-------------|
 G#|-----------|-----------|-----------|-------------|
 E |-----------|-----------|-----------|-------------|
 B |-X-8--8--8-|-X-8--8--8-|-X-8--8--8-|-X-5-5-5-5-5-|
 F#|-X-6--6--6-|-X-6--6--6-|-X-6--6--6-|-X-3-3-3-3-3-|
 B |-X---------|-X---------|-X---------|-X-----------|

 


 


 Tapping melody


 


 [ x4 ] 


 

 
 C#|--------------|----------------|----------------|---------------|
 G#|--------------|----------------|----------------|---------------|
 E |-7t2-9t2-10t2-|-12t2-10t2-12t2-|-14t3-12t3-10t3-|-12t3-10t3-5t2-|
 B |--------------|----------------|----------------|---------------|
 F#|--------------|----------------|----------------|---------------|
 B |--------------|----------------|----------------|---------------|

 


 


 Tapping harmony


 


 Guitar 1


 


 [ x4 ] 


 

 
 C#|--------------|----------------|----------------|---------------|
 G#|--------------|----------------|----------------|---------------|
 E |-7t2-9t2-10t2-|-12t2-10t2-12t2-|-14t3-12t3-10t3-|-12t3-10t3-5t2-|
 B |--------------|----------------|----------------|---------------|
 F#|--------------|----------------|----------------|---------------|
 B |--------------|----------------|----------------|---------------|

 


 


 Guitar 2


 [ x4 ] [ 1st, 2nd and 3rd times ] 


 

 
 C#|----------------|----------------|----------------|---------------|
 G#|----------------|----------------|----------------|---------------|
 E |-10t2-12t2-14t2-|-15t2-14t2-15t2-|-17t3-15t3-14t3-|-15t3-14t3-9t2-|
 B |----------------|----------------|----------------|---------------|
 F#|----------------|----------------|----------------|---------------|
 B |----------------|----------------|----------------|---------------|

 


 


 [ 4tb time ] 


 

 
 C#|----------------|----------------|
 G#|--pick slide----|----------------|

 


 E |-X~~~~~~~~~~~~~~|~~~~~~~~~~~~~~~~|


 B |-X~~~~~~~~~~~~~~|~~~~~~~~~~~~~~~~|


 F#|-X~~~~~~~~~~~~~~|~~~~~~~~~~~~~~~~|


 

 
 B |----------------|----------------|

 


 


 Breakdown


 


 

 
 C#|---------------------|---------------------|---------------------|
 G#|---------------------|---------------------|---------------------|
 E |---------------------|---------------------|---------------------|
 B |-------------8-8-8-8-|-------------3-------|-------------8-8-8-8-|
 F#|----7-0---0--6-6-6-6-|-0--7-0---0----6-5-3-|-0--7-0---0--6-6-6-6-|
 B |-0--7-0---0----------|-0--7-0---0----------|-0--7-0---0----------|
 C#|-------------------------|
 G#|-------------------------|
 E |-------------10/12-12-12-|
 B |-------------------------|
 F#|-0--7-0---0--8-/10-10-10-|
 B |-0--7-0---0--------------|

 


 


 Climbing riff


 


 [ x4 ] [ x2 ] 


 

 
 C#|-------------|-------------|-------------|-------------|
 G#|-------------|-------------|-------------|-------------|
 E |-------------|-------------|-------------|-------------|
 B |-------------|-------------|-3-1-0-3-1-0-|-4-3-1-3-1-0-|
 F#|-------------|-------------|-------------|-------------|
 B |-3-1-0-3-1-0-|-4-3-1-3-1-0-|-------------|-------------|

 


 . . . . . . . . . . . .


 


 

 
 C#|-----------------|------------------|-----------------|-----------------|
 G#|-----------------|------------------|-----------------|-----------------|
 E |-----------------|------------------|-22-20---22-20---|-23-22-20-22-20--|
 B |-15-13-0-15-13-0-|-16-15-13-15-13-0-|-------0-------0-|----------------0|
 F#|-----------------|------------------|-----------------|-----------------|
 B |-----------------|------------------|-----------------|-----------------|

 


 


 Bridge


 


 

 
 C#|-----------|-----------|-----------|----------|
 G#|-----------|-----------|-----------|----------|
 E |-----------|-----------|-----------|----------|
 B |-5-5--5--5-|-4---------|-5-5--5--5-|-3--5--5--|
 F#|-5-5--5--5-|-4---------|-5-5--5--5-|-3--5--5--|
 B |-5-5--5--5-|-4---------|-5-5--5--5-|-3--5--5--|

 


 . . . . . . . .


 Pre-solo


 


 Guitar 1


 

 
 C#|---18------------|-17------------|-15------------|-13----12----13-------|
 G#|------15--15--15-|----15--15--15-|----15--15--15-|----15----15----15----|
 E |-----------------|---------------|---------------|----------------------|
 B |-----------------|---------------|---------------|----------------------|
 F#|-----------------|---------------|---------------|----------------------|
 B |-----------------|---------------|---------------|----------------------|

 


 


 Guitar 2


 

 
 C#|-----------------|---------------|---------------|----------------------|
 G#|-----------------|---------------|---------------|----------------------|
 E |-----------------|---------------|---------------|----------------------|
 B |-----------------|---------------|---------------|----------------------|
 F#|-----------------|---------------|---------------|----------------------|
 B |-----------------|---------------|---------------|----------------------|

 


 


 Guitar 1


 

 
 C#|---18------------|-17------------|-15------------|-13----12----13-------|
 G#|------15--15--15-|----15--15--15-|----15--15--15-|----15----15----15----|
 E |-----------------|---------------|---------------|----------------------|
 B |-----------------|---------------|---------------|----------------------|
 F#|-----------------|---------------|---------------|----------------------|
 B |-----------------|---------------|---------------|----------------------|

 


 


 Guitar 2


 

 
 C#|-----------------|---------------|---------------|----------------------|
 G#|-----------------|---------------|---------------|----------------------|
 E |-----------------|---------------|---------------|----------------------|
 B |-----------------|---------------|---------------|----------------------|
 F#|-----------------|---------------|---------------|----------------------|
 B |-----------------|---------------|---------------|----------------------|

 


 


 Guitar 1


 

 
 C#|---18------------|-17------------|-15------------|-13----12----13-------|
 G#|------15--15--15-|----15--15--15-|----15--15--15-|----15----15----15----|
 E |-----------------|---------------|---------------|----------------------|
 B |-----------------|---------------|---------------|----------------------|
 F#|-----------------|---------------|---------------|----------------------|
 B |-----------------|---------------|---------------|----------------------|

 


 


 Guitar 2


 

 
 C#|-----------------|---------------|---------------|----------------------|
 G#|-----------------|---------------|---------------|----------------------|
 E |--volume swell---|---------------|-volume swell--|----------------------|
 B |-3~~~------------|---------------|-5~~~----------|----------------------|
 F#|-----------------|---------------|-7~~~----------|----------------------|
 B |-----------------|---------------|---------------|----------------------|

 


 


 Guitar 1


 

 
 C#|---18------------|-17------------|-15------------|-13----12----13-------|
 G#|------15--15--15-|----15--15--15-|----15--15--15-|----15----15----15----|
 E |-----------------|---------------|---------------|----------------------|
 B |-----------------|---------------|---------------|----------------------|
 F#|-----------------|---------------|---------------|----------------------|
 B |-----------------|---------------|---------------|----------------------|

 


 


 Guitar 2


 

 
 C#|-----------------|---------------|---------------|----------------------|
 G#|-----------------|---------------|-volume swell--|----------------------|
 E |--volume swell---|---------------|-5~~~----------|----------------------|
 B |-7~~~------------|---------------|---------------|----------------------|
 F#|-5~~~------------|---------------|-3~~~----------|----------------------|
 B |-----------------|---------------|---------------|----------------------|

 


 


 Solo


 


 [ x3


 

 
 C#|-------------------|-------------------|-------------------|
 G#|-------------------|-------------------|-------------------|
 E |-14p10----14p10----|-14p10----14p10----|-15p10----14p10----|
 B |-------12-------12-|-------12-------12-|-------12-------12-|
 F#|-------------------|-------------------|-------------------|
 B |-------------------|-------------------|-------------------|

 


 


 ]


 

 
 C#|-------------------|-------------------|
 G#|-13p10----13p10----|-13p10----13p10----|
 E |-------10-------10-|-------10-------10-|
 B |-------------------|-------------------|
 F#|-------------------|-------------------|
 B |-------------------|-------------------|

 


 


 [ 1st time


 

 
 C#|-----------------------|-------------------------|
 G#|-13--(15)--(13)--(15)--|-10h13p10----10h13p10----|
 E |-*-bu----bd----bu------|----------12----------12-|
 B |-ph--------------------|-------------------------|
 F#|-----------------------|-------------------------|
 B |-----------------------|-------------------------|

 


 


 ]


 

 
 C#|----------------------------|--------------------|
 G#|-10-------------------------|--------------------|
 E |-10h12p10----10p0-----------|--------------------|
 B |----------12------12p0-10p0-|-8--10~~~~~~~-------|
 F#|----------------------------|----*---------------|
 B |----------------------------|----ph--------------|

 


 


 [ 2nd time ] 


 

 
 C#|-15---------------|-13----12----13----|-15----13----12----|-13-(15)-13--|
 G#|-""""""""""""""""-|-"""""-"""""-"""""-|-"""""-"""""-"""""-|-~~~~~~~~~~~~|
 E |-tremolo pick-----|-------------------|-------------------|--trill------|
 B |------------------|-------------------|-------------------|-------------|
 F#|------------------|-------------------|-------------------|-------------|
 B |------------------|-------------------|-------------------|-------------|

 


 


 [ 3rd time ] 


 

 
 C#|----------------|-----------------|----------------|--------------------|
 G#|----------------|-----------------|----------------|-10-----------------|
 E |-9h10p9h10p9----|-9h10p9h10/12\10-|-9h10p9h10p9----|----12p10p9---------|
 B |-------------12-|-----------------|-------------12-|------------12p10---|
 F#|----------------|-----------------|----------------|--------------------|
 B |----------------|-----------------|----------------|--------------------|
 C#|-------------------|-------------------|-------------------|
 G#|-------------------|-------------------|-------------------|
 E |-14p10----14p10----|-14p10----14p10----|-15p10----14p10----|
 B |-------12-------12-|-------12-------12-|-------12-------12-|
 F#|-------------------|-------------------|-------------------|
 B |-------------------|-------------------|-------------------|
 C#|--------------|-------------|-------------|-11----------|-11----------|
 G#|--------------|-------------|-------------|-14--(16)~~~-|-14--(16)~~~-|
 E |-12p9-12p9----|-10p7-10p7---|-10p7-10p7---|---bu--------|---bu--------|
 B |-----------10-|-----------9-|-----------9-|-------------|-------------|
 F#|--------------|-------------|-------------|-------------|-------------|
 B |--------------|-------------|-------------|-------------|-------------|
 C#|-11----------|-13-------------|-15---------|-15---------|-18--------|
 G#|-14--(16)~~~-|-16--(18)--(16)-|-18--(20)---|-18--(20)---|-21--(23)--|
 E |---bu--------|---bu----bd-----|---bu-------|---bu-------|---bu------|
 B |-------------|----------------|------------|------------|-----------|
 F#|-------------|----------------|------------|------------|-----------|
 B |-------------|----------------|------------|------------|-----------|
 C#|----------------|
 G#|---(23)--(21)---|
 E |-pb----bd-------|
 B |----------------|
 F#|----------------|
 B |----------------|

 


 


 Heavier main riff


 


 [ x2 ] 


 

 
 C#|-----------|-----------|-----------|-------------|
 G#|-----------|-----------|-----------|-------------|
 E |-----------|-----------|-----------|-------------|
 B |-----------|-----------|-----------|-------------|
 F#|-8-0--0--0-|-7-0--0--0-|-5-0--0--0-|-3-0-2-0-3-0-|
 B |-8-0--0--0-|-7-0--0--0-|-5-0--0--0-|-3-0-2-0-3-0-|

 


 . . . . . . . . . . . . . . . . . .


 


 Chorus variation


 


 [ x2


 

 
 C#|--------------|--------------|-----------------|-------------------|
 G#|--------------|--------------|-----------------|-------------------|
 E |-10-----------|-10-----------|-10-----10-10-10-|-10-10-10-10-10-10-|
 B |-8--8-8-8-8-8-|-8--8-8-8-8-8-|-8--8-8-8--8--8--|-7--7--7--7--7--7--|
 F#|--------------|--------------|-----------------|-------------------|
 B |--------------|--------------|-----------------|-------------------|

 


 . . . . . . . . . . . . . .


 ]


 

 
 C#|-----------|------------|-----------|-------------|
 G#|-----------|------------|-----------|-------------|
 E |-----------|------------|-----------|-------------|
 B |-----------|------------|-----------|-------------|
 F#|-----------|------------|-----------|-------------|
 B |-8-0--0--0-|--7-0--0--0-|-8-0--0--0-|-3-0-2-0-3-0-|

 


 


 Outro


 


 

 
 C#|-----------|---------|---------|---------|----------|----------|
 G#|-----------|---------|---------|-9-------|----------|----------|
 E |-10--------|---------|-9-------|-8-------|----------|----------|
 B |-8---------|---------|-8-------|-7-------|-5--------|----------|
 F#|-8---------|---------|-8-------|-7-------|-5--------|----------|
 B |-8---------|---------|-8-------|-7-------|-5--------|----------|
 C#|-----------|-----------|-----------|-------------|
 G#|-----------|-----------|-----------|-------------|
 E |-----------|-----------|-----------|-------------|
 B |-0-8--8--8-|-0-8--8--8-|-0-8--8--8-|-0-5-5-5-5-5-|
 F#|-0-6--6--6-|-0-6--6--6-|-0-6--6--6-|-0-3-3-3-3-3-|
 B |-0---------|-0---------|-0---------|-0-----------|

 


 . . . .


 

 
 C#|-----------|-----------|-----------|-------------|
 G#|-----------|-----------|-----------|-------------|
 E |-----------|-----------|-----------|-------------|
 B |-x-1--1--1-|-x-1--1--1-|-x-1--1--1-|-x-5-5-5-5-5-|
 F#|-x-1--1--1-|-x-1--1--1-|-x-1--1--1-|-x-3-3-3-3-3-|
 B |-x-1--1--1-|-x-1--1--1-|-x-1--1--1-|-x-----------|
 C#|-----------|------------|-----------|--------|
 G#|-----------|------------|-----------|--------|
 E |-----------|-pick slide-|-----------|--------|
 B |-----------|-----X~~~~~~|-----------|--------|
 F#|-0-0--0--0-|-0---X~~~~~~|-0-0--0--0-|-0--x---|
 B |-0-0--0--0-|-0---X~~~~~~|-0-0--0--0-|-0--x---|


Important: The song above is NOT stored on the Chordie server. The original song is hosted at www.guitaretab.com. Chordie works as a search engine and provides on-the-fly formatting. Chordie does not index songs against artists'/composers' will. To remove this song please click here.

This song is displayed as text-only. Transposing and tuning is only available for chordpro-songs.
Rate #3 of 3 versions

Login - add to songbook

SHARE PAGE  



You need to log in to post comments