Guitar Tabs, Chords and Lyrics
Server problems seems to be fixed. Chordie has been experiencing problems with songs disappearing. These issues now seems to be fixed, but still verifying the fix. If you find anything strange, please email admin@chordie.com.


Clenching the Fists of Dissent   Machine Head

 
 |---------------------------------------|
 |-6--------6--6--5-----------6--6--5----|
 |-------5-----------7-----5-------------|
 |-------------------8-------------------|
 |-5-------------------------------------|
 |---------------------------------------|

 


 


 clean electric


 x2


 

 
 |-----------------------------------|
 |-6------6--6--5---------6--6--5----|
 |-----------------7-----------------|
 |-----------------8-----------------|
 |-5---------------------------------|
 |-----------------------------------|
 |-------------------------|
 |-5------6--6--5--5-------|
 |-------------------------|
 |-7---------------7-------|
 |-------------------------|
 |-------------------------|

 


 


 distortion on


 


 |----


 |----


 |----


 |-0--


 |-0--swell


 |-0--


 


 main riff


 


 

 
 |-------------------------------------------------------------------------------------|
 |-------------------------------------------------------------------------------------|
 |--------------------------------------------------------p0------p0-------------|
 |--------------------------------------------------------------p0------p0-------|
 |-3h5-------------------3h6-------3h6--3h5--------------------------------------------|
 |------0-0-0-0-0-0-0-0-------0-0------------0-0-0-0-0-0-------------------------------|
 p.m--------------- p.m---- p.m----------------------------|
 |-------------------------------------------------------------------------------|
 |------------------------------------------------------------------6-4-3--------|
 |------------------------------------------------------------------------5------|
 |--------------------------------------------0-0-3-3-3-3-6-5-3------------------|
 |-3h5-------------------3h6-------3h6--3h5---------------------6----------------|
 |------0-0-0-0-0-0-0-0-------0-0------------------------------------------------|
 p.m--------------- p.m--- p.m--------------------|
 |-------------------------------------------------------------------------------------|
 |-------------------------------------------------------------------------------------|
 |--------------------------------------------------------p0------p0-------------|
 |--------------------------------------------------------------p0------p0-------|
 |-3h5-------------------3h6-------3h6--3h5--------------------------------------------|
 |------0-0-0-0-0-0-0-0-------0-0------------0-0-0-0-0-0-------------------------------|
 p.m--------------- p.m---- p.m----------------------------|
 |--------------------------------------------------------------------------------|
 |------------------------------------------------------------------6-4-3---------|
 |------------------------------------------------------------------------5-------|
 |--------------------------------------------0-0-3-3-3-3-6-5-3-------------x/x---|
 |-3h5-------------------3h6-------3h6--3h5---------------------6-----------x/x---|
 |------0-0-0-0-0-0-0-0-------0-0-------------------------------------------x/x---|
 p.m--------------- p.m--- p.m----------------------|

 


 verse


 


 

 
 |-------------------------------------------------------------------------------------|
 |-------------------------------------------------------------------------------------|
 |--------------------------------------------------------p0------p0-------------|
 |--------------------------------------------------------------p0------p0-------|
 |-3h5-------------------3h6-------3h6--3h5--------------------------------------------|
 |------0-0-0-0-0-0-0-0-------0-0------------0-0-0-0-0-0-------------------------------|
 p.m--------------- p.m---- p.m----------------------------|
 |------------------------------------------------------------------------------|
 |------------------------------------------------------------------6-4-3-------|
 |------------------------------------------------------------------------5-----|
 |--------------------------------------------0-0-3-3-3-3-6-5-3-----------------|
 |-3h5-------------------3h6-------3h6--3h5---------------------6---------------|
 |------0-0-0-0-0-0-0-0-------0-0-----------------------------------------------|
 p.m--------------- p.m--- p.m--------------------|
 |-------------------------------------------------------------------------------------|
 |-------------------------------------------------------------------------------------|
 |--------------------------------------------------------p0------p0-------------|
 |--------------------------------------------------------------p0------p0-------|
 |-3h5-------------------3h6-------3h6--3h5--------------------------------------------|
 |------0-0-0-0-0-0-0-0-------0-0------------0-0-0-0-0-0-------------------------------|
 p.m--------------- p.m---- p.m----------------------------|
 |-------------------------------------------------------------|
 |-------------------------------------------------------------|
 |-------------------------------------------------------------|
 |-----------------------(5)----(5)--1--------2\4--3--1--------|
 |-3h5----------------------(5)-----1--0--1--2\4--3--1---------|
 |------0-0-0-0-0-0-0-0------------1--0--1--2\4--3--1----------|
 p.m---------------------------------------------------|
 |-------------------------------------------------------------------------------------|
 |-------------------------------------------------------------------------------------|
 |--------------------------------------------------------p0------p0-------------|
 |--------------------------------------------------------------p0------p0-------|
 |-3h5-------------------3h6-------3h6--3h5--------------------------------------------|
 |------0-0-0-0-0-0-0-0-------0-0------------0-0-0-0-0-0-------------------------------|
 p.m--------------- p.m---- p.m----------------------------|
 |------------------------------------------------------------------------------|
 |------------------------------------------------------------------6-4-3-------|
 |------------------------------------------------------------------------5-----|
 |--------------------------------------------0-0-3-3-3-3-6-5-3-----------------|
 |-3h5-------------------3h6-------3h6--3h5---------------------6---------------|
 |------0-0-0-0-0-0-0-0-------0-0-----------------------------------------------|
 p.m--------------- p.m--- p.m--------------------|
 |-------------------------------------------------------------------------------------|
 |-------------------------------------------------------------------------------------|
 |--------------------------------------------------------p0------p0-------------|
 |--------------------------------------------------------------p0------p0-------|
 |-3h5-------------------3h6-------3h6--3h5--------------------------------------------|
 |------0-0-0-0-0-0-0-0-------0-0------------0-0-0-0-0-0-------------------------------|
 p.m--------------- p.m---- p.m----------------------------|
 |-------------------------------------------------------------|
 |-------------------------------------------------------------|
 |-------------------------------------------------------------|
 |-----------------------(5)----(5)--1--------2\4--3--1--------|
 |-3h5----------------------(5)-----1--0--1--2\4--3--1---------|
 |------0-0-0-0-0-0-0-0------------1--0--1--2\4--3--1----------|
 p.m---------------------------------------------------|

 


 x3


 

 
 |------------------------------|
 |------------------------------|
 |------------------------------|
 |----------5-3p2p0-------------|
 |-0--2--------------3--2--5----|
 |-0--2-2-2----------3--2--5----|
 |-------------------------------------------------------------------------------------|
 |-------------------------------------------------------------------------------------|
 |-------------------------------------------------------------------------------------|
 |----------5-3p2p0--6-6-6-6-6-6-6-6---------------------------------------------------|
 |-0--2--------------------------------------------------------------------------------|
 |-0--2-2-2----------------------------------------------------------------------------|
 p.m-------------------------------------------------------|
 |-------------------------------------------------------------------------------------|
 |-------------------------------------------------------------------------------------|
 |--------------------------------------------------------p0------p0-------------|
 |--------------------------------------------------------------p0------p0-------|
 |-3h5-------------------3h6-------3h6--3h5--------------------------------------------|
 |------0-0-0-0-0-0-0-0-------0-0------------0-0-0-0-0-0-------------------------------|
 p.m-------------- p.m--- p.m---------------------------|
 |------------------------------------------------------------------------------|
 |------------------------------------------------------------------6-4-3-------|
 |------------------------------------------------------------------------------|
 |--------------------------------------------0-0-3-3-3-3-6-5-3----------3------|
 |-3h5-------------------3h6-------3h6--3h5---------------------6--------3------|
 |------0-0-0-0-0-0-0-0-------0-0----------------------------------------3------|
 p.m-------------- p.m--- p.m--------------------|
 |----------------------------------------------------------------------|
 |----------------------------------------------------------------------|
 |-------------------------------------------------8--8-8-8-8-8-8-8-----|
 |-----------------------------6-------------------x--x-x-x-x-x-x-x-----|
 |-----------------------------6-------------------6--6-6-6-6-6-6-6-----|
 |-3-3-3-3-3-3-3-3-3-3-3-3-3-3-6--6-6-6-6-6-6-6-6-----------------------|
 p.m-------------------------- p.m-----------------------------------|

 


 


 Breakdown


 


 

 
 |-------------------------------------------------------|
 |-------------------------------------------------------|
 |-------------------------------------------------------|
 |--------------3\6--5--6---------------3\6--5--8-6------|
 |-------------------------------------------------------|
 |-0-0-0-0-0-0-------------0-0-0-0-0-0-------------------|
 p.m---------- p.m--------------------|
 |-------------------------------------------------------|
 |-------------------------------------------------------|
 |-------------------------------------------------------|
 |--------------3\6--5--6---------------3\6--5--3-1------|
 |-------------------------------------------------------|
 |-0-0-0-0-0-0-------------0-0-0-0-0-0-------------------|
 p.m--------- p.m-------------------|
 |-------------------------------------------------------|
 |-------------------------------------------------------|
 |-------------------------------------------------------|
 |--------------3\6--5--6---------------3\6--5--8-6------|
 |-------------------------------------------------------|
 |-0-0-0-0-0-0-------------0-0-0-0-0-0-------------------|
 p.m---------- p.m--------------------|
 |-------------------------------------------------------|
 |-------------------------------------------------------|
 |-------------------------------------------------------|
 |--------------3\6--5--6---------------3\6--5--3-1------|
 |-------------------------------------------------------|
 |-0-0-0-0-0-0-------------0-0-0-0-0-0-------------------|
 p.m---------- p.m---------------------|
 |-------------------------------------------------|
 |-------------------------------------------------|
 |-------------------------------------------------|
 |-------------------------------------------------|
 |-------------1--0--1--------------1--0--3-1------|
 |-0-0-0-0-0-0-1--0--1--0-0-0-0-0-0-1--0--3-1------|
 p.m---------- p.m--------------------|
 |-----------------------------------------------|
 |-----------------------------------------------|
 |-----------------------------------------------|
 |-----------------------------------|
 |--------------1--0--1--------------------------|
 |-0-0-0-0-0-0-1--0--1--0------0------0----------|
 p.m---------------------------------------------|
 |--------------------------------------------------|
 |--------------------------------------------------|
 |--------------------------------------------------|
 |--------------------------------------------------|
 |-------------1--0--1--------------1--0--3-1-------|
 |-0-0-0-0-0-0-1--0--1--0-0-0-0-0-0-1--0--3-1-------|
 p.m---------- p.m--------------------|
 |------------------------------------------------/-----|
 |-----------------------------------------------/------|
 |-------------------------------/----------|
 | -------------------------------------------0-/-------|
 |--------------1--0--1----------------------0/---------|
 |-0-0-0-0-0-0-1--0--1--0-----0-----0-------------------|
 p.m----------------------------------------------------|

 


 


 1st solo


 


 

 
 |-16-16-15-13----16-16-15-13----16-16-15-13----16-16-15-13----16-16-15-13---------|
 |--------------15-------------15--------------15-------------15--------------15---|
 |---------------------------------------------------------------------------------|
 |---------------------------------------------------------------------------------|
 |---------------------------------------------------------------------------------|
 |---------------------------------------------------------------------------------|
 |-16-16-15-13----16-16-15-13----16-16-15-13----20-22-20-17-18-17-15-17-15------|
 |--------------15-------------15-------------15--------------------------------|
 |------------------------------------------------------------------------------|
 |------------------------------------------------------------------------------|
 |------------------------------------------------------------------------------|
 |------------------------------------------------------------------------------|
 |------------------------------------------------------------------------------|
 |-18-20-18-17-18-17-15-17-15---------------------------------------------------|
 |-----------------------------17-19-17-15-17-15-14-15-14-----------------------|
 |----------------------------------------------------------17-19-17-15-17-15---|
 |------------------------------------------------------------------------------|
 |------------------------------------------------------------------------------|
 |-----------------------------------8\13--10\15--------------------------------|
 |--------------------10\15--12\17----------------------------------------------|
 |-----------vvv/5----------------------------12h13p12p10-12p10-------------|
 |-14-15-14-----------------------------------------------------------12h13-----|
 |------------------------------------------------------------------------------|
 |------------------------------------------------------------------------------|
 |---------------------------------------------------------|
 |---------------------------------------------------------|
 |-12h13p12p10-\5--------------------------------------|
 |----------------------(5)----(5)--1--------2\4--3--1-----|
 |-------------------------(5)-----1--0--1--2\4--3--1------|
 |--------------------------------1--0--1--2\4--3--1-------|

 


 


 Verse 2


 


 

 
 |-------------------------------------------------------------------------------------|
 |-------------------------------------------------------------------------------------|
 |--------------------------------------------------------p0------p0-------------|
 |--------------------------------------------------------------p0------p0-------|
 |-3h5-------------------3h6-------3h6--3h5--------------------------------------------|
 |------0-0-0-0-0-0-0-0-------0-0------------0-0-0-0-0-0-------------------------------|
 p.m--------------- p.m---- p.m----------------------------|
 |------------------------------------------------------------------------------|
 |------------------------------------------------------------------6-4-3-------|
 |------------------------------------------------------------------------5-----|
 |--------------------------------------------0-0-3-3-3-3-6-5-3-----------------|
 |-3h5-------------------3h6-------3h6--3h5---------------------6---------------|
 |------0-0-0-0-0-0-0-0-------0-0-----------------------------------------------|
 p.m--------------- p.m--- p.m--------------------|
 |-------------------------------------------------------------------------------------|
 |-------------------------------------------------------------------------------------|
 |--------------------------------------------------------p0------p0-------------|
 |--------------------------------------------------------------p0------p0-------|
 |-3h5-------------------3h6-------3h6--3h5--------------------------------------------|
 |------0-0-0-0-0-0-0-0-------0-0------------0-0-0-0-0-0-------------------------------|
 p.m--------------- p.m---- p.m----------------------------|
 |-------------------------------------------------------------|
 |-------------------------------------------------------------|
 |-------------------------------------------------------------|
 |-----------------------(5)----(5)--1--------2\4--3--1--------|
 |-3h5----------------------(5)-----1--0--1--2\4--3--1---------|
 |------0-0-0-0-0-0-0-0------------1--0--1--2\4--3--1----------|
 p.m---------------------------------------------------|

 


 p.m...........................


 x3


 

 
 |---------------------------|
 |---------------------------|
 |---------------------------|
 |-------5-3p2p0-------------|
 |-0--2-----------3--2--5----|
 |-0--2-----------3--2--5----|
 |---------------------------------------------|
 |---------------------------------------------|
 |---------------------------------------------|
 |-------5-3p2p0--6-6-6-6-6-6-6-6--------------|
 |-0--2----------------------------------------|
 |-0--2----------------------------------------|
 p.m---------------|
 |-------------------------------------------------------------------------------------|
 |-------------------------------------------------------------------------------------|
 |--------------------------------------------------------p0------p0-------------|
 |--------------------------------------------------------------p0------p0-------|
 |-3h5-------------------3h6-------3h6--3h5--------------------------------------------|
 |------0-0-0-0-0-0-0-0-------0-0------------0-0-0-0-0-0-------------------------------|
 p.m-------------- p.m--- p.m--------------------------|
 |------------------------------------------------------------------------------|
 |------------------------------------------------------------------6-4-3-------|
 |------------------------------------------------------------------------------|
 |--------------------------------------------0-0-3-3-3-3-6-5-3----------3------|
 |-3h5-------------------3h6-------3h6--3h5---------------------6--------3------|
 |------0-0-0-0-0-0-0-0-------0-0----------------------------------------3------|
 p.m-------------- p.m--- p.m---------------------|
 |-----------------------------------------------------------------------|
 |-----------------------------------------------------------------------|
 |--------------------------------------------------8--8-8-8-8-8-8-8-----|
 |------------------------------6-------------------x--x-x-x-x-x-x-x-----|
 |------------------------------6-------------------6--6-6-6-6-6-6-6-----|
 |-3-3-3-3-3-3-3-3-3-3-3-3-3-3-6--6-6-6-6-6-6-6-6------------------------|
 p.m-------------------------- p.m-------------------------------------|

 


 


 Breakdown 2


 


 

 
 |-------------------------------------------------------|
 |-------------------------------------------------------|
 |-------------------------------------------------------|
 |--------------3\6--5--6---------------3\6--5--8-6------|
 |-------------------------------------------------------|
 |-0-0-0-0-0-0-------------0-0-0-0-0-0-------------------|
 p.m---------- p.m----------------------|
 |-------------------------------------------------------|
 |-------------------------------------------------------|
 |-------------------------------------------------------|
 |--------------3\6--5--6---------------3\6--5--3-1------|
 |-------------------------------------------------------|
 |-0-0-0-0-0-0-------------0-0-0-0-0-0-------------------|
 p.m---------- p.m---------------------|
 |-------------------------------------------------------|
 |-------------------------------------------------------|
 |-------------------------------------------------------|
 |--------------3\6--5--6---------------3\6--5--8-6------|
 |-------------------------------------------------------|
 |-0-0-0-0-0-0-------------0-0-0-0-0-0-------------------|
 p.m--------- p.m----------------------|
 |-------------------------------------------------------|
 |-------------------------------------------------------|
 |-------------------------------------------------------|
 |--------------3\6--5--6---------------3\6--5--3-1------|
 |-------------------------------------------------------|
 |-0-0-0-0-0-0-------------0-0-0-0-0-0-------------------|
 p.m--------- p.m---------------------|
 |-------------------------------------------------|
 |-------------------------------------------------|
 |-------------------------------------------------|
 |-------------------------------------------------|
 |-------------1--0--1--------------1--0--3-1------|
 |-0-0-0-0-0-0-1--0--1--0-0-0-0-0-0-1--0--3-1------|
 p.m---------- p.m--------------------|
 |-----------------------------------------------|
 |-----------------------------------------------|
 |-----------------------------------------------|
 |-----------------------------------|
 |--------------1--0--1--------------------------|
 |-0-0-0-0-0-0-1--0--1--0------0------0----------|
 p.m---------------------------------------------|
 |--------------------------------------------------|
 |--------------------------------------------------|
 |--------------------------------------------------|
 |--------------------------------------------------|
 |-------------1--0--1--------------1--0--3-1-------|
 |-0-0-0-0-0-0-1--0--1--0-0-0-0-0-0-1--0--3-1-------|
 p.m---------- p.m--------------------|
 |------------------------------------------------/-----|
 |-----------------------------------------------/------|
 |-------------------------------/----------|
 | -------------------------------------------0-/-------|
 |--------------1--0--1----------------------0/---------|
 |-0-0-0-0-0-0-1--0--1--0-----0-----0-------------------|
 p.m----------------------------------------------------|
 p.m----------------------------------------------------|

 


 


 Pre solo breakdown


 


 |-10vvvvv---|


 

 
 |-----------|

 


 |--7vvvvv\--|


 

 
 |--------\--|
 |-----------|
 |-----------|

 


 


 x3


 

 
 |-------------------------|
 |-------------------------|
 |-------------------------|
 |----3-----3--4-----4--5--|
 |-------5--------6--------|
 |-0-----------------------|
 |------------------------|
 |------------------------|
 |------------------------|
 |----3--------2--------1-|
 |-------5--4-----4--3----|
 |-0----------------------|

 


 


 x3


 

 
 |-------------------------|
 |-------------------------|
 |-------------------------|
 |----3-----3--4-----4--5--|
 |-------5--------6--------|
 |-0-----------------------|
 |------------------------|
 |------------------------|
 |------------------------|
 |----3--------2--------1-|
 |-------5--4-----4--3----|
 |-0----------------------|

 


 


 x3


 

 
 |---------------------------------|
 |---------------------------------|
 |---------------------------------|
 |----------3--------4-----4--5----|
 |----------3-----3--4-----4--5----|
 |-0--0--0--3--0--3--4--1--4--5----|

 


 p.m----- p.m p.m


 


 

 
 |------------------------|
 |------------------------|
 |------------------------|
 |----3--------2--------1-|
 |-------5--4-----4--3----|
 |-0----------------------|

 


 


 x3


 

 
 |---------------------------------|
 |---------------------------------|
 |---------------------------------|
 |----------3--------4-----4--5----|
 |----------3-----3--4-----4--5----|
 |-0--0--0--3--0--3--4--1--4--5----|

 


 p.m----- p.m p.m


 


 

 
 |------------------------|
 |------------------------|
 |------------------------|
 |----3--------2--------1-|
 |-------5--4-----4--3----|
 |-0----------------------|

 


 


 x3


 

 
 |---------------------------------|
 |---------------------------------|
 |---------------------------------|
 |----------3--------4-----4--5----|
 |----------3-----3--4-----4--5----|
 |-0--0--0--3--0--3--4--1--4--5----|

 


 p.m----- p.m p.m


 


 

 
 |-------------------------|
 |-------------------------|
 |----5--------4--------3--|
 |-------7--6-----6--5-----|
 |-------------------------|
 |-0-----------------------|
 |------------------------------------------------|
 |------------------------------------------------|
 |------------------------------------------------|
 |-x/x--6-6-6-6--x/x--6-6-6-6--x/x--6-6-6-6--7----|
 |-x/x--6-6-6-6--x/x--6-6-6-6--x/x--6-6-6-6--7----|
 |-x/x--6-6-6-6--x/x--6-6-6-6--x/x--6-6-6-6--7----|

 


 


 Second solo


 


 

 
 |-----------------------------13tr14--17----17---17---17---17--------12tr13---|
 |-10\11--10/8--10-----15tr16------------20----18---17---15---14tr15-----------|
 |-------------------6---------------------------------------------------------|
 |--7\8----7/5---7-------------------------------------------------------------|
 |-------------------4---------------------------------------------------------|
 |-----------------------------------------------------------------------------|
 |-17---17---17---17----17---20-18-17-18-17----20-18-17-18-17----20-18-17-18-17------|
 |---20---18---17----15----------------------20-----------------20-------------------|
 |-----------------------------------------------------------------------------------|
 |-----------------------------------------------------------------------------------|
 |-----------------------------------------------------------------------------------|
 |-----------------------------------------------------------------------------------|
 |------------------------------------------------------------------------------------|
 |-20----------16---16-18-20-13p12-13p12p10-13p12-13p12p10-13p12-13p12p10-13p12-------|
 |----15-17-19---19-------------------------------------------------------------------|
 |------------------------------------------------------------------------------------|
 |------------------------------------------------------------------------------------|
 |------------------------------------------------------------------------------------|
 |---------------------------------17p15-17p15p12-17p15-17p15p12-17p15-17p15p12-----|
 |-13p12p10-13p12-13p12p10-13p12----------------------------------------------------|
 |----------------------------------------------------------------------------------|
 |----------------------------------------------------------------------------------|
 |----------------------------------------------------------------------------------|
 |----------------------------------------------------------------------------------|
 |-17p15-17p15p12-17p15-17p15p12-17p15-20p19-20p19p17-20p19-20p19p17-20p19--------|
 |--------------------------------------------------------------------------------|
 |--------------------------------------------------------------------------------|
 |--------------------------------------------------------------------------------|
 |--------------------------------------------------------------------------------|
 |--------------------------------------------------------------------------------|
 |-20p19p17-20p19-20p19p17-20p19-20p19p17-20p19-20b22--20--19-------------------|
 |-----------------------------------------------------------------20--17--18---|
 |------------------------------------------------------------------------------|
 |------------------------------------------------------------------------------|
 |------------------------------------------------------------------------------|
 |------------------------------------------------------------------------------|
 |-17-17-17-17-17-17-17-17-17-17-17-17----------------------17----15-17---------------|
 |---------------------------------------18----------------18----17-------14--15-14---|
 |------------------------------------------19----------19----------------------------|
 |---------------------------------------------19-15-19-------------------------------|
 |------------------------------------------------------------------------------------|
 |------------------------------------------------------------------------------------|
 |-17---------------------------------18-18--18-17-18-17-18-18b20--17-----------------|
 |----14-15-14-15-17-15-14-15---------------------------------------------------------|
 |-----------------------------10\15------------------------------------17-15-14------|
 |--------------------------------------------------------------------------------17--|
 |------------------------------------------------------------------------------------|
 |------------------------------------------------------------------------------------|
 |-----------------------------------------------------------------------------------|
 |-----------------------------------------------------------------------------------|
 |-15-14-------------------------------------14-15-14-12-14-15-14-15-14-12-14-15-----|
 |-------17-15-17-15-14----15-14-----------------------------------------------------|
 |-----------------------17-------17-15-12v------------------------------------------|
 |-----------------------------------------------------------------------------------|
 |-----------------------------------------------------------------17-18-17-15-17--|
 |--------------17-18-17-15-17-18-17-18-17-15-17-18-17-18-17-15--------------------|
 |-14-15-14-12---------------------------------------------------------------------|
 |---------------------------------------------------------------------------------|
 |---------------------------------------------------------------------------------|
 |---------------------------------------------------------------------------------|
 |-18-17-18-17-15-17-18-17-18-17-15-20b22--20vv--19--19vv--17-19-20-19-17-----------|
 |---------------------------------------------------------------------------20-18--|
 |----------------------------------------------------------------------------------|
 |----------------------------------------------------------------------------------|
 |----------------------------------------------------------------------------------|
 |----------------------------------------------------------------------------------|
 |---------------------------------------------17-19-20-20b22vvvr20vvvv--19vvv--22----|vvv
 |-20-18-17-18-17-20b22vvr20--------17-18-20------------------------------------------|
 |-----------------------------17-19--------------------------------------------------|
 |------------------------------------------------------------------------------------|
 |------------------------------------------------------------------------------------|
 |------------------------------------------------------------------------------------|

 


 


 Post solo breakdown


 


 x3


 

 
 |------------------------------------------------------------------------------------|
 |------------------------------------------------------------------------------------|
 |------------------------------------------------------------------------------------|
 |-7------10-----8------5------8--5--7--7------10-----8------5------3--5--7-----------|
 |-5------8------6------3------6--3--5--5------8------6------3------1--3--5-----------|
 |----0-0----0-0----0-0----0-0-------------0-0----0-0----0-0----0-0-------------------|
 p.m-- p.m-- p.m-- p.m-- p.m--- p.m-- p.m-- p.m----|
 |-----------------------------------------------------------------------------------|
 |-----------------------------------------------------------------------------------|
 |-----------------------------------------------------------------------------------|
 |-7------10-----8------5------8--5--7--7------10-----8------5------3\5--------------|
 |-5------8------6------3------6--3--5--5------8------6------3------1\3--------------|
 |----0-0----0-0----0-0----0-0-------------0-0----0-0----0-0----0-0------------------|
 p.m-- p.m-- p.m--- p.m-- p.m--- p.m-- p.m-- p.m---|
 |--------------------------------------------------------------------------------|
 |-----------------6-6--6-6-6-6-6-5-5- 5-5-5-5-5-8-8--8-8-8-8-8-5-5- 5-5-5-5-5----|
 |-3-3--3-3-3-3-3-x-x--x-x-x-x-x-x-x--x-x-x-x-x-x-x--x-x-x-x-x-x-x--x-x-x-x-x-----|
 |-x-x--x-x-x-x-x-3-3--3-3-3-3-3-2-2--2-2-2-2-2-5-5--5-5-5-5-5-2-2--2-2-2-2-2-----|
 |-1-1--1-1-1-1-1-----------------------------------------------------------------|
 |--------------------------------------------------------------------------------|
 |--------------------------------------------------|
 |-5-5--5-5-5-5-5-6-6--6-6-6-6-6-5-5--5-5-5-5-5-----|
 |-x-x--x-x-x-x-x-x-x--x-x-x-x-x-x-x---x-x-x-x-x----|
 |-2-2--2-2-2-2-2-3-3--3-3-3-3-3-2-2--2-2-2-2-2-----|
 |--------------------------------------------------|
 |--------------------------------------------------|

 


 


 guitars go out for vocal and bass solo and then return for verse


 


 Verse 3


 


 x3


 

 
 |------------------------------|
 |------------------------------|
 |------------------------------|
 |----------5-3p2p0-------------|
 |-0--2--------------3--2--5----|
 |-0--2-2-2----------3--2--5----|
 |--------------------------------------------|
 |--------------------------------------------|
 |--------------------------------------------|
 |----------5-3p2p0--6-6-6-6-6-6-6-6----------|
 |-0--2---------------------------------------|
 |-0--2-2-2-----------------------------------|
 p.m--------------|
 |-------------------------------------------------------------------------------------|
 |-------------------------------------------------------------------------------------|
 |--------------------------------------------------------p0------p0-------------|
 |--------------------------------------------------------------p0------p0-------|
 |-3h5-------------------3h6-------3h6--3h5--------------------------------------------|
 |------0-0-0-0-0-0-0-0-------0-0------------0-0-0-0-0-0-------------------------------|
 p.m-------------- p.m--- p.m---------------------------|
 |------------------------------------------------------------------------------|
 |------------------------------------------------------------------6-4-3-------|
 |------------------------------------------------------------------------------|
 |--------------------------------------------0-0-3-3-3-3-6-5-3----------3------|
 |-3h5-------------------3h6-------3h6--3h5---------------------6--------3------|
 |------0-0-0-0-0-0-0-0-------0-0----------------------------------------3------|
 p.m-------------- p.m--- p.m------------------|
 |-----------------------------------------------------------------------|
 |-----------------------------------------------------------------------|
 |--------------------------------------------------8--8-8-8-8-8-8-8-----|
 |------------------------------6-------------------x--x-x-x-x-x-x-x-----|
 |------------------------------6-------------------6--6-6-6-6-6-6-6-----|
 |-3-3-3-3-3-3-3-3-3-3-3-3-3-3-6--6-6-6-6-6-6-6-6------------------------|
 p.m------------------------- p.m------------------------------------|

 


 


 Breakdown


 


 

 
 |-------------------------------------------------------|
 |-------------------------------------------------------|
 |-------------------------------------------------------|
 |--------------3\6--5--6---------------3\6--5--8-6------|
 |-------------------------------------------------------|
 |-0-0-0-0-0-0-------------0-0-0-0-0-0-------------------|
 p.m--------- p.m----------------------|
 |-------------------------------------------------------------|
 |-------------------------------------------------------------|
 |-------------------------------------------------------------|
 |--------------3\6--5--6---------------3\6--5--3-1--0---------|
 |----------------------------------------------------0--------|
 |-0-0-0-0-0-0-------------0-0-0-0-0-0---------------0---------|
 p.m--------- p.m----------------------------|

 


 


 Outro


 


 

 
 |-------------------------------------------------------------------------------|
 |------------------------------11vv--10vv--11vv--10vv--11vv--10vv--11vv--14vv---|
 |-8vv--7vv--8vv--7vv--8vv--7vv--------------------------------------------------|
 |-------------------------------------------------------------------------------|
 |-------------------------------------------------------------------------------|
 |-------------------------------------------------------------------------------|

 


 


 X2


 

 
 |-----------------------------------------------------------|
 |-----------------------------------------------------------|
 |-4b6r4-----------------------------------------------------|
 |-----------------------------------------------------------|
 |--------1-0-1--1-0-4-3--1-0-1--1-0-4-3--1-0-1--1-0-4-3-----|
 |--------1-0-1--1-0-4-3--1-0-1--1-0-4-3--1-0-1--1-0-4-3-----|
 |---------------------------------------------------------|
 |---------------------------------------------------------|
 |---------------------------------------------------------|
 |-x/x-----------------------------------------------------|
 |-x/x--1-0-1--1-0-4-3--1-0-1--1-0-4-3--1-0-1--1-0-4-3-----|
 |-x/x--1-0-1--1-0-4-3--1-0-1--1-0-4-3--1-0-1--1-0-4-3-----|
 |-----------------------------------------------------------|
 |-----------------------------------------------------------|
 |-4b6r4-----------------------------------------------------|
 |-----------------------------------------------------------|
 |--------1-0-1--1-0-4-3--1-0-1--1-0-4-3--1-0-1--1-0-4-3-----|
 |--------1-0-1--1-0-4-3--1-0-1--1-0-4-3--1-0-1--1-0-4-3-----|
 |-----------------------------------------------------------|
 |-----------------------------------------------------------|
 |-----------------------------------------------------------|
 |-----------------------------------------------------------|
 |--------1-0-1--1-0-4-3--1-0-1--1-0-4-3--1-0-1--1-0-4-3-----|
 |-4b6r4--1-0-1--1-0-4-3--1-0-1--1-0-4-3--1-0-1--1-0-4-3-----|
 |-----------------------------------------------------------|
 |-----------------------------------------------------------|
 |-4b6r4-----------------------------------------------------|
 |-----------------------------------------------------------|
 |--------1-0-1--1-0-4-3--1-0-1--1-0-4-3--1-0-1--1-0-4-3-----|
 |--------1-0-1--1-0-4-3--1-0-1--1-0-4-3--1-0-1--1-0-4-3-----|
 |----------------------------------------------------------|
 |----------------------------------------------------------|
 |----------------------------------------------------------|
 |----------------------------------------------------------|
 |-------1-0-1--1-0-4-3--1-0-1--1-0-4-3--1-0-1--1-0-4-3-----|
 |-18/5--1-0-1--1-0-4-3--1-0-1--1-0-4-3--1-0-1--1-0-4-3-----|
 |-----------------------------------------------------------|
 |-----------------------------------------------------------|
 |-----------------------------------------------------------|
 |-----------------------------------------------------------|
 |--------1-0-1--1-0-4-3--1-0-1--1-0-4-3--1-0-1--1-0-4-3-----|
 |-4b6r4--1-0-1--1-0-4-3--1-0-1--1-0-4-3--1-0-1--1-0-4-3-----|
 |-----------------------------------------------------------|
 |-----------------------------------------------------------|
 |-----------------------------------------------------------|
 |-----------------------------------------------------------|
 |--------1-0-1--1-0-4-3--1-0-1--1-0-4-3--1-0-1--1-0-4-3-----|
 |-4b6r4--1-0-1--1-0-4-3--1-0-1--1-0-4-3--1-0-1--1-0-4-3-----|
 |---------------------------------------------------------|
 |---------------------------------------------------------|
 |---------------------------------------------------------|
 |-x/x-----------------------------------------------------|
 |-x/x--1-0-1--1-0-4-3--1-0-1--1-0-4-3--1-0-1--1-0-4-3-----|
 |-x/x--1-0-1--1-0-4-3--1-0-1--1-0-4-3--1-0-1--1-0-4-3-----|
 |-------------------------------------------------------------|
 |-------------------------------------------------------------|
 |-------------------------------------------------------------|
 |-x-x-x-x-----------------------------------------------------|
 |-x-x-x-x--1-0-1--1-0-4-3--1-0-1--1-0-4-3--1-0-1--1-0-4-3-----|
 |-x-x-x-x--1-0-1--1-0-4-3--1-0-1--1-0-4-3--1-0-1--1-0-4-3-----|
 |---------------------------------------------------------|
 |---------------------------------------------------------|
 |---------------------------------------------------------|
 |-x/x-----------------------------------------------------|
 |-x/x--1-0-1--1-0-4-3--1-0-1--1-0-4-3--1-0-1--1-0-4-3-----|
 |-x/x--1-0-1--1-0-4-3--1-0-1--1-0-4-3--1-0-1--1-0-4-3-----|
 |-------------------------------------------------------------|
 |-------------------------------------------------------------|
 |-------------------------------------------------------------|
 |-x-x-x-x-----------------------------------------------------|
 |-x-x-x-x--1-0-1--1-0-4-3--1-0-1--1-0-4-3--1-0-1--1-0-4-3-----|
 |-x-x-x-x--1-0-1--1-0-4-3--1-0-1--1-0-4-3--1-0-1--1-0-4-3-----|


Important: The song above is NOT stored on the Chordie server. The original song is hosted at www.guitaretab.com. Chordie works as a search engine and provides on-the-fly formatting. Chordie does not index songs against artists'/composers' will. To remove this song please click here.

This song is displayed as text-only. Transposing and tuning is only available for chordpro-songs.
Rate #1 of 3 versions

Login - add to songbook

SHARE PAGE  



You need to log in to post comments