Guitar Tabs, Chords and Lyrics
Server problems seems to be fixed. Chordie has been experiencing problems with songs disappearing. These issues now seems to be fixed, but still verifying the fix. If you find anything strange, please email admin@chordie.com.


Beautiful Mourning  Machine Head

BEAUTIFUL MOURNING
As recorded by Machine Head
(From the 2007 Album THE BLACKENING)
Words and Music by Machine Head
Transcribed by Marlo
Gtr I (B Gb B E Ab Db) - 'Untitled'
Gtr II (B Gb B E Ab Db) - 'Untitled'
Gtr III (B Gb B E Ab Db) - 'Untitled'
Intro
Q=140
Gtr I
W W
 
 |---------------------------------|--------------------------------|
 |---------------------------------|--------------------------------|
 |---------------------------------|--------------------------------|
 |---------------------------------|--------------------------------|
 |---------------------------------|--------------------------------|
 |---------------------------------|--------------------------------|

|
| Gtr II
 
 | PM----| PM| PM----| PM| PM----| PM|

| S S S S S S S S S S S S S S S S S S S S S S S S S S S S E E
 
 |---------------------------------|--------------------------------|
 |---------------------------------|--------------------------------|
 |---------------------------------|--------------------------------|
 |-0-0-0-0-1p0-0-0-1p0-0-0-0-0-1p0-|-0-0-3p0-0-0-0-0-1p0-0-0-3-1----|
 |---------------------------------|--------------------------------|
 |---------------------------------|--------------------------------|

W H S S S S S S S S
 
 |---------------------------------|-----------------------------------|
 |---------------------------------|-----------------------------------|
 |---------------------------------|-----------------------------------|
 |---------------------------------|-----------------5h6-0-0-5h6-0-0---|
 |---------------------------------|-----------------------------------|
 |---------------------------------|-----------------------------------|

|
 
 | PM----| PM| PM----| PM| PM----|

| S S S S S S S S S S S S S S S S S S S S S S S S S S S S S S S S
 
 |---------------------------------|-----------------------------------|
 |---------------------------------|-----------------------------------|
 |---------------------------------|-----------------------------------|
 |-0-0-0-0-1p0-0-0-1p0-0-0-0-0-1p0-|-0-0-3p0-0-0-0-0-5h6-0-0-5h6-0-0---|
 |---------------------------------|-----------------------------------|
 |---------------------------------|-----------------------------------|

Gtrs I, II
 
 PM----| PM| PM----| PM| PM----| PM|

S S S S S S S S S S S S S S S S S S S S S S S S S S S S E E
 
 |---------------------------------|--------------------------------|
 |---------------------------------|--------------------------------|
 |---------------------------------|--------------------------------|
 |-0-0-0-0-1p0-0-0-1p0-0-0-0-0-1p0-|-0-0-3p0-0-0-0-0-1p0-0-0-3-1----|
 |---------------------------------|--------------------------------|
 |---------------------------------|--------------------------------|

Gtr I
 
 PM----| PM| PM----| PM| PM----|

S S S S S S S S S S S S S S S S S S S S S S S S H
 
 |---------------------------------|-----------------------------------------|
 |---------------------------------|-----------------------------------------|
 |---------------------------------|-----------------------------------------|
 |-0-0-0-0-1p0-0-0-1p0-0-0-0-0-1p0-|-0-0-3p0-0-0-0-0-------------------------|
 |---------------------------------|-----------------------------------------|
 |---------------------------------|-----------------------------------------|

|
| Gtr II
 
 | PM----| PM| PM----| PM| PM----|

| S S S S S S S S S S S S S S S S S S S S S S S S S S S S S S S S
 
 |---------------------------------|-----------------------------------------|
 |---------------------------------|-----------------------------------------|
 |---------------------------------|-----------------------------------------|
 |-0-0-0-0-1p0-0-0-1p0-0-0-0-0-1p0-|-0-0-3p0-0-0-0-0-0h10h12h13-0h10h12h13---|
 |---------------------------------|-----------------------------------------|
 |---------------------------------|-----------------------------------------|

Gtrs I, II
S S S S S S S S S S S S S S S S S S S S S S S S S S S S E E
 
 |---------------------------------|--------------------------------|
 |---------------------------------|--------------------------------|
 |---------------------------------|--------------------------------|
 |---------------------------------|--------------------------------|
 |---------------------------------|--------------------------------|
 |-0-0-0-0-1p0-0-0-1p0-0-0-0-0-1p0-|-0-0-3p0-0-0-0-0-1p0-0-0-3-1----|

S S S S S S S S S S S S S S S S S S S S S S S S S S S S S S S S
 
 |---------------------------------|-----------------------------------|
 |---------------------------------|-----------------------------------|
 |---------------------------------|-----------------------------------|
 |---------------------------------|-----------------------------------|
 |---------------------------------|-----------------------------------|
 |-0-0-0-0-1p0-0-0-1p0-0-0-0-0-1p0-|-0-0-3p0-0-0-0-0-5h6-0-0-5h6-0-0---|

S S S S S S S S S S S S S S S S S S S S S S S S S S S S E E
 
 |---------------------------------|--------------------------------|
 |---------------------------------|--------------------------------|
 |---------------------------------|--------------------------------|
 |---------------------------------|--------------------------------|
 |---------------------------------|--------------------------------|
 |-0-0-0-0-1p0-0-0-1p0-0-0-0-0-1p0-|-0-0-3p0-0-0-0-0-1p0-0-0-3-1----|

S S S S S S S S S S S S S S S S S S E E E E. E. E
 
 |---------------------------------|----------------------|
 |---------------------------------|----------------------|
 |---------------------------------|-----5-----5----------|
 |---------------------------------|-----5-----5----------|
 |---------------------------------|-----3-0-0-3--0--0----|
 |-0-0-0-0-1p0-0-0-1p0-0-0-0-0-1p0-|-0-0---0-0----0--0----|

Verse
Gtr I
W +W
 
 |-------------------|--------------------|
 |-------------------|--------------------|
 |-------------------|--------------------|
 |-0-----------------|-(0)----------------|
 |-0-----------------|-(0)----------------|
 |-0-----------------|-(0)----------------|

|
| Gtr II
| E E E E E E E E E E E E E E E E
 
 |-------------------|--------------------|
 |-------------------|--------------------|
 |-------------------|--------------------|
 |-------/8-------/8-|---------/8---------|
 |-0-0-0-/6-0-0-0-/6-|--0--0-0-/6-0-0-0-1-|
 |-0-0-0----0-0-0----|--0--0-0----0-0-0-1p|

+W +E E E E E E E E
 
 |---------------------|-------------------|
 |---------------------|-----9-9-8-8-------|
 |---------------------|-----x-x-x-x-3-3---|
 |-(0)-----------------|-(0)-6-6-5-5-x-x-1-|
 |-(0)-----------------|-(0)---------1-1-1-|
 |-(0)-----------------|-(0)-------------1-|

|
| E E E E E E E E E E E E E E E E
 
 |---------------------|-------------------|
 |---------------------|-----9-9-8-8-------|
 |---------------------|-----x-x-x-x-3-3---|
 |---------/8-------/8-|-----6-6-5-5-x-x-1-|
 |--0--0-0-/6-0-0-0-/6-|--0----------1-1-1-|
 |--0--0-0----0-0-0----|--0--------------1-|
 PM------------------------------------

[E] [E] [E] [B] [E] [E] [E] [E] [E] [B]  
 
 ||--------------------|------------------|
 ||o-------------------|------------------|
 ||--------------------|------------------|
 ||--------------------|------------------|
 ||o-0-0-0-----------0-|-0-0-0------------|
 ||--0-0-0-----------0-|-0-0-0------------|

|
| E E E E E E E E E E E E E E E E
 
 ||--------------------|------------------|
 ||o-------------------|------------------|
 ||--------------------|------------------|
 ||--------/8-------/8-|-------/8---------|
 ||o-0-0-0-/6-0-0-0-/6-|-0-0-0-/6-0-0-0-1-|
 ||--0-0-0----0-0-0----|-0-0-0----0-0-0-1p|
 ---------------------|

[E] [E] [E] [B] [E] [E] [E] [E] [E] [E] [E] [E] [E]  
 
 |-------------------|-------------------||
 |-------------------|---9-9-8-8--------o||
 |-------------------|---x-x-x-x-3-3-----||
 |-------------------|---6-6-5-5-x-x-1---||
 |-0-0-0-----------0-|-0---------1-1-1--o||
 |-0-0-0-----------0-|-0-------------1---||

|
| E E E E E E E E E E E E E E E E
 
 |-------------------|-------------------||
 |-------------------|---9-9-8-8--------o||
 |-------------------|---x-x-x-x-3-3-----||
 |-------/8-------/8-|---6-6-5-5-x-x-1---||
 |-0-0-0-/6-0-0-0-/6-|-0---------1-1-1--o||
 |-0-0-0----0-0-0----|-0-------------1---||
 PM---------------------------------------------------------| ~~~

E E E H E E E E E H E E E H E E E q E E Q
 
 |-------------------|------------------|-------------------|-------------------|
 |-------------------|------------------|-------------------|---/4-3--/4-1------|
 |-------------------|------------------|-------------------|--------------[3]--|
 |-------------------|------------------|-------------------|-------------------|
 |-0-0-0-----------0-|-0-0-0------------|-0-0-0-----------0-|-0-----------------|
 |-0-0-0-----------0-|-0-0-0------------|-0-0-0-----------0-|-0-----------------|

|
| ~~~
| E E E E E E E E E E E E E E E E E E E E E E E E E E q E E Q
 
 |-------------------|------------------|-------------------|-------------------|
 |-------------------|------------------|-------------------|---/4-3--/4-1------|
 |-------------------|------------------|-------------------|--------------[3]--|
 |-------/8-------/8-|-------/8---------|-------/8-------/8-|-------------------|
 |-0-0-0-/6-0-0-0-/6-|-0-0-0-/6-0-0-0-1-|-0-0-0-/6-0-0-0-/6-|-0-----------------|
 |-0-0-0----0-0-0----|-0-0-0----0-0-0-1p|=0-0-0----0-0-0----|-0-----------------|

Gtrs I, II
[E] [E] [E] [E] [E] [E] [E] [E] [E] [E] [E] [E] [E] [E] [E] [E] [E] [E] [E] [E] [E] [E] [E] [E] [E] [E] [E] [E] [E] [E] [E] [E]  
 
 |-------------------|------------------|-------------------|-----------------|
 |-------------------|------------------|-------------------|---9-9-8-8-------|
 |-------------------|------------------|-------------------|---x-x-x-x-3-3---|
 |-------/8-------/8-|-------/8---------|-------/8-------/8-|---6-6-5-5-x-x-1-|
 |-0-0-0-/6-0-0-0-/6-|-0-0-0-/6-0-0-0-1-|-0-0-0-/6-0-0-0-/6-|-0---------1-1-1-|
 |-0-0-0----0-0-0----|-0-0-0----0-0-0-1p|=0-0-0----0-0-0----|-0-------------1-|

~~~
E E E E E E E E E E E E E E E E E E E E E E E E E E q E E Q
 
 |-------------------|------------------|-------------------|-------------------|
 |-------------------|------------------|-------------------|-------------------|
 |-------------------|------------------|-------------------|--------------[3]--|
 |-------/8-------/8-|-------/8---------|-------/8-------/8-|-------------------|
 |-0-0-0-/6-0-0-0-/6-|-0-0-0-/6-0-0-0-1-|-0-0-0-/6-0-0-0-/6-|-0-/6-5--/6-3------|
 |-0-0-0----0-0-0----|-0-0-0----0-0-0-1p|=0-0-0----0-0-0----|-0-----------------|

Chorus
[E] [E] [E] [E] [E] [E] [E] [E] [+E] [E] [E] [E] [E] [E] [+E] [E]  
 
 |-----------------|---------------------|
 |-8-8-8-8-8-8-8-8-|-(8)-8-8-8-8---------|
 |-----------------|-------------8-(8)-8-|
 |-5-5-5-5-5-5-5-4-|-(4)-4-4-4-4---------|
 |-----------------|-------------6-(6)-6-|
 |-----------------|---------------------|

E E E E E E E E +E E E E E E Q
 
 |-------------------------|------------------------|
 |-11-11-11-11-11-11-11-11-|-(11)-11-11-11----------|
 |-------------------------|------------------------|
 |--8--8--8--8--8--8--8--7-|--(7)--7--7--7-10-10----|
 |-------------------------|---------------10-10----|
 |-------------------------|---------------10-10----|

E E E E E E Q E E E E E E Q
 
 |------------------|--------------------|
 |------------------|--------------------|
 |------------------|--------------------|
 |-0----------1--|-0------------1--|
 |-0-0-0-0-0-----1--|-0-0-0-0------1--|
 |-0-0-0-0-0-----1--|-0-0-0-0---------1--|

E E E E E E Q E E E E E E Q
 
 |------------------|--------------------|
 |------------------|--------------------|
 |------------------|--------------------|
 |-0----------1--|-0------------1--|
 |-0-0-0-0-0-----1--|-0-0-0-0------1--|
 |-0-0-0-0-0-----1--|-0-0-0-0---------1--|

[E] [E] [E] [E] [E] [E] [E] [E] [+E] [E] [E] [E] [E] [E] [E] [E]  
 
 |-----------------|----------------------|
 |-8-8-8-8-8-8-8-8-|-(8)-8-8-8-8-11-11-11-|
 |-----------------|----------------------|
 |-5-5-5-5-5-5-5-4-|-(4)-4-4-4-4--8--8--8-|
 |-----------------|----------------------|
 |-----------------|----------------------|

[E] [+E] [E] [E] [E] [E] [E] [E] [+E] [E] [E] [E] [E] [E] [E] [E]  
 
 |-------------------|-------------------|
 |-------------------|-------------------|
 |-8-(8)-8-8-8-8-8-8-|-(8)-8-8-8-8-3-3-3-|
 |-------------------|-------------------|
 |-6-(6)-6-6-6-6-6-5-|-(5)-5-5-5-5-1-1-1-|
 |-------------------|-------------------|

Gtr I
E +E E E E E E E +E E E E E E E E W
 
 |--------------------|-------------------|------------------------------------|
 |--------------------|-------------------|------------------------------------|
 |-/5-(5)-5-5-5-5-5-5-|-(5)-5-5-5-5-5-5-5-|-7----------------------------------|
 |--------------------|-------------------|-7----------------------------------|
 |-/3-(3)-3-3-3-3-3-2-|-(2)-2-2-2-2-2-2-2-|-5----------------------------------|
 |--------------------|-------------------|------------------------------------|

|
| Gtr II
| E +E E E E E E E +E E E E E E E E S S S S S S S S S S S S S S S S
 
 |--------------------|-------------------|------------------------------------|
 |--------------------|-------------------|------------------------------------|
 |-/5-(5)-5-5-5-5-5-5-|-(5)-5-5-5-5-5-5-5-|------------------------------------|
 |--------------------|-------------------|-0-3-5-7-0-5-7-8-0-7-8-10-0-8-10-12-|
 |-/3-(3)-3-3-3-3-3-2-|-(2)-2-2-2-2-2-2-2-|------------------------------------|
 |--------------------|-------------------|------------------------------------|

+W
 
 |--------------------------------------------------|
 |--------------------------------------------------|
 |-(7)----------------------------------------------|
 |-(7)----------------------------------------------|
 |-(5)----------------------------------------------|
 |--------------------------------------------------|

|
| S S S S S S S S S S S S S S S S
 
 |--------------------------------------------------|
 |--------------------------------------------------|
 |--------------------------------------------------|
 |--0--10-12-13-0-12-13-15-0-13-15-17-0-15-17-18----|
 |--------------------------------------------------|
 |--------------------------------------------------|

Verse
[2/4]  
 
 PM------------------------------------

[B] [E] [E] [E] [B] [E] [E] [E] [E] [E] [B]  
 
 |------|-------------------|------------------|
 |------|-------------------|------------------|
 |------|-------------------|------------------|
 |------|-------------------|------------------|
 |------|-0-0-0-----------0-|-0-0-0------------|
 |------|-0-0-0-----------0-|-0-0-0------------|

|
| h E E E E E E E E E E E E E E E E
 
 |------|-------------------|------------------|
 |------|-------------------|------------------|
 |------|-------------------|------------------|
 |------|-------/8-------/8-|-------/8---------|
 |------|-0-0-0-/6-0-0-0-/6-|-0-0-0-/6-0-0-0-1-|
 |-0----|-0-0-0----0-0-0----|-0-0-0----0-0-0-1p|
 ---------------------|

[E] [E] [E] [B] [E] [E] [E] [E] [E] [E] [E] [E] [E]  
 
 |-------------------|--------------------|
 |-------------------|---9-9-8-8----------|
 |-------------------|---x-x-x-x-3-3------|
 |-------------------|---6-6-5-5-x-x-1----|
 |-0-0-0-----------0-|-0---------1-1-1----|
 |-0-0-0-----------0-|-0-------------1----|

|
| E E E E E E E E E E E E E E E E
 
 |-------------------|--------------------|
 |-------------------|---9-9-8-8----------|
 |-------------------|---x-x-x-x-3-3------|
 |-------/8-------/8-|---6-6-5-5-x-x-1----|
 |-0-0-0-/6-0-0-0-/6-|-0---------1-1-1----|
 |-0-0-0----0-0-0----|-0-------------1----|
 PM---------------------------------------------------------| ~~~

E E E H E E E E E H E E E H E E E q E E Q
 
 |-------------------|------------------|-------------------|-------------------|
 |-------------------|------------------|-------------------|---/4-3--/4-1------|
 |-------------------|------------------|-------------------|--------------[3]--|
 |-------------------|------------------|-------------------|-------------------|
 |-0-0-0-----------0-|-0-0-0------------|-0-0-0-----------0-|-0-----------------|
 |-0-0-0-----------0-|-0-0-0------------|-0-0-0-----------0-|-0-----------------|

|
| ~~~
| E E E E E E E E E E E E E E E E E E E E E E E E E E q E E Q
 
 |-------------------|------------------|-------------------|-------------------|
 |-------------------|------------------|-------------------|---/4-3--/4-1------|
 |-------------------|------------------|-------------------|--------------[3]--|
 |-------/8-------/8-|-------/8---------|-------/8-------/8-|-------------------|
 |-0-0-0-/6-0-0-0-/6-|-0-0-0-/6-0-0-0-1-|-0-0-0-/6-0-0-0-/6-|-0-----------------|
 |-0-0-0----0-0-0----|-0-0-0----0-0-0-1p|=0-0-0----0-0-0----|-0-----------------|

Gtrs I, II
[E] [E] [E] [E] [E] [E] [E] [E] [E] [E] [E] [E] [E] [E] [E] [E] [E] [E] [E] [E] [E] [E] [E] [E] [E] [E] [E] [E] [E] [E] [E] [E]  
 
 |-------------------|------------------|-------------------|-----------------|
 |-------------------|------------------|-------------------|---9-9-8-8-------|
 |-------------------|------------------|-------------------|---x-x-x-x-3-3---|
 |-------/8-------/8-|-------/8---------|-------/8-------/8-|---6-6-5-5-x-x-1-|
 |-0-0-0-/6-0-0-0-/6-|-0-0-0-/6-0-0-0-1-|-0-0-0-/6-0-0-0-/6-|-0---------1-1-1-|
 |-0-0-0----0-0-0----|-0-0-0----0-0-0-1p|=0-0-0----0-0-0----|-0-------------1-|

~~~
E E E E E E E E E E E E E E E E E E E E E E E E E E q E E Q
 
 |-------------------|------------------|-------------------|-------------------|
 |-------------------|------------------|-------------------|-------------------|
 |-------------------|------------------|-------------------|--------------[3]--|
 |-------/8-------/8-|-------/8---------|-------/8-------/8-|-------------------|
 |-0-0-0-/6-0-0-0-/6-|-0-0-0-/6-0-0-0-1-|-0-0-0-/6-0-0-0-/6-|-0-/6-5--/6-3------|
 |-0-0-0----0-0-0----|-0-0-0----0-0-0-1p|=0-0-0----0-0-0----|-0-----------------|

Chorus
[E] [E] [E] [E] [E] [E] [E] [E] [+E] [E] [E] [E] [E] [E] [+E] [E]  
 
 |-----------------|---------------------|
 |-8-8-8-8-8-8-8-8-|-(8)-8-8-8-8---------|
 |-----------------|-------------8-(8)-8-|
 |-5-5-5-5-5-5-5-4-|-(4)-4-4-4-4---------|
 |-----------------|-------------6-(6)-6-|
 |-----------------|---------------------|

E E E E E E E E +E E E E E E Q
 
 |-------------------------|------------------------|
 |-11-11-11-11-11-11-11-11-|-(11)-11-11-11----------|
 |-------------------------|------------------------|
 |--8--8--8--8--8--8--8--7-|--(7)--7--7--7-10-10----|
 |-------------------------|---------------10-10----|
 |-------------------------|---------------10-10----|

E E E E E E Q E E E E E E Q
 
 |------------------|--------------------|
 |------------------|--------------------|
 |------------------|--------------------|
 |-0----------1--|-0------------1--|
 |-0-0-0-0-0-----1--|-0-0-0-0------1--|
 |-0-0-0-0-0-----1--|-0-0-0-0---------1--|

E E E E E E Q E E E E E E Q
 
 |------------------|--------------------|
 |------------------|--------------------|
 |------------------|--------------------|
 |-0----------1--|-0------------1--|
 |-0-0-0-0-0-----1--|-0-0-0-0------1--|
 |-0-0-0-0-0-----1--|-0-0-0-0---------1--|

[E] [E] [E] [E] [E] [E] [E] [E] [+E] [E] [E] [E] [E] [E] [E] [E]  
 
 |-----------------|----------------------|
 |-8-8-8-8-8-8-8-8-|-(8)-8-8-8-8-11-11-11-|
 |-----------------|----------------------|
 |-5-5-5-5-5-5-5-4-|-(4)-4-4-4-4--8--8--8-|
 |-----------------|----------------------|
 |-----------------|----------------------|

[E] [+E] [E] [E] [E] [E] [E] [E] [+E] [E] [E] [E] [E] [E] [E] [E]  
 
 |-------------------|-------------------|
 |-------------------|-------------------|
 |-8-(8)-8-8-8-8-8-8-|-(8)-8-8-8-8-3-3-3-|
 |-------------------|-------------------|
 |-6-(6)-6-6-6-6-6-5-|-(5)-5-5-5-5-1-1-1-|
 |-------------------|-------------------|

Breakdown
Gtr I
~ ~
E +E E E E E E E +E E E E E E E E S S S S Q Q S S S S H H
 
 |--------------------|-------------------|-----------------------|-----------|
 |--------------------|-------------------|-----------------------|-----------|
 |-/5-(5)-5-5-5-5-5-5-|-(5)-5-5-5-5-5-5-5-|-----------------------|-----------|
 |--------------------|-------------------|-----------------------|-----------|
 |-/3-(3)-3-3-3-3-3-2-|-(2)-2-2-2-2-2-2-2-|-5h6p5p3-5-----5h6p5p3-|-5---------|
 |--------------------|-------------------|------------0----------|------0----|

|
| Gtr II
| E +E E E E E E E +E E E E E E E E W H H
 
 |--------------------|-------------------|-----------------------|-----------|
 |--------------------|-------------------|-----------------------|-----------|
 |-/5-(5)-5-5-5-5-5-5-|-(5)-5-5-5-5-5-5-5-|-----------------------|-----------|
 |--------------------|-------------------|-----------------------|-----------|
 |-/3-(3)-3-3-3-3-3-2-|-(2)-2-2-2-2-2-2-2-|-----------------------|-----------|
 |--------------------|-------------------|-----------------------|------0----|

Gtrs I, II
~ ~ ~
S S S S Q Q S S S S Q Q Q Q S S S S Q Q S S S S H H
 
 |-----------------------|--------------|-----------------------|-----------|
 |-----------------------|--------------|-----------------------|-----------|
 |-----------------------|--------------|-----------------------|-----------|
 |-----------------------|--------------|-----------------------|-----------|
 |-5h6p5p3-5-----5h6p5p3-|-5\-----------|-5h6p5p3-5-----5h6p5p3-|-5---------|
 |------------0----------|-----1--4--3--|------------0----------|------0----|

~ ~
S S S S H S S S S H H
 
 |----------------------|-----------|
 |----------------------|-----------|
 |----------------------|-----------|
 |----------------------|-----------|
 |----------------------|------1----|
 |-5-6-5-3-5----5-6-5-3-|-5----1----|

~ ~ ~
S S S S Q Q S S S S H H S S S S Q Q S S S S Q Q Q Q
 
 |-----------------------|-----------|-----------------------|---------------|
 |-----------------------|-----------|-----------------------|---------------|
 |-----------------------|-----------|-----------------------|---------------|
 |-----------------------|-----------|-----------------------|---------------|
 |-5h6p5p3-5-----5h6p5p3-|-5---------|-5h6p5p3-5-----5h6p5p3-|-5\------------|
 |------------0----------|------0----|------------0----------|-----1--4--3---|

~ ~ ~ ~
S S S S Q Q S S S S H H S S S S H S S S S H H
 
 |-----------------------|-----------|----------------------|-----------|
 |-----------------------|-----------|----------------------|-----------|
 |-----------------------|-----------|----------------------|-----------|
 |-----------------------|-----------|----------------------|-----------|
 |-5h6p5p3-5-----5h6p5p3-|-5---------|----------------------|------1----|
 |------------0----------|------0----|-5-6-5-3-5----5-6-5-3-|-5----1----|

Gtr I
[E] [E] [E] [E] [E] [E] [E] [E] [E] [E] [E] [E] [E] [E] [E] [E]  
 
 |-------------------------|-------------------------|
 |-------------------------|-------------------------|
 |--8--8--8--8--8--8--8--8-|--8--8--8--8--8--8--8--8-|
 |-------------------------|-------------------------|
 |--6--6--6--6--6--6--6--6-|--5--5--5--5--6--6--6--6-|
 |-------------------------|-------------------------|

|
| Gtr II
| E E E E E E E E E E E E E E E E
 
 |-------------------------|-------------------------|
 |-11-11-11-11-11-11-11-11-|-15-15-16-16-15-15-13-13-|
 |-------------------------|-------------------------|
 |--8--8--8--8--8--8--8--8-|-12-12-13-13-12-12-10-10-|
 |-------------------------|-------------------------|
 |-------------------------|-------------------------|

[E] [E] [E] [E] [E] [E] [E] [E] [E] [E] [E] [E] [E] [E] [E] [E]  
 
 |-------------------------|-------------------------|
 |-------------------------|-------------------------|
 |-10-10-10-10-10-10-10-10-|-10-10-10-10-10-10-10-10-|
 |-------------------------|-------------------------|
 |--8--8--8--8--8--8--8--8-|--7--7--7--7--8--8--8--8-|
 |-------------------------|-------------------------|

|
| E E E E E E E E E E E E E E E E
 
 |-------------------------|-------------------------|
 |-10-10-10-10-10-10-10-10-|-15-15-16-16-15-15-13-13-|
 |-------------------------|-------------------------|
 |--7--7--7--7--7--7--7--7-|-12-12-13-13-12-12-10-10-|
 |-------------------------|-------------------------|
 |-------------------------|-------------------------|

[E] [E] [E] [E] [E] [E] [E] [E] [E] [E] [E] [E] [E] [E] [E] [E]  
 
 |-------------------------|-------------------------|
 |-11-11-11-11-11-11-11-11-|-11-11-11-11-11-11-11-11-|
 |-------------------------|-------------------------|
 |--8--8--8--8--8--8--8--8-|--7--7--7--7--8--8--8--8-|
 |-------------------------|-------------------------|
 |-------------------------|-------------------------|

|
| E E E E E E E E E E E E E E E E
 
 |-------------------------|-------------------------|
 |-11-11-11-11-11-11-11-11-|-15-15-16-16-15-15-13-13-|
 |-------------------------|-------------------------|
 |--8--8--8--8--8--8--8--8-|-12-12-13-13-12-12-10-10-|
 |-------------------------|-------------------------|
 |-------------------------|-------------------------|

[E] [E] [E] [E] [E] [E] [E] [E] [E] [E] [E] [E] [E] [E] [E] [E]  
 
 |-------------------------|-------------------------|
 |-13-13-13-13-13-13-13-13-|-13-13-13-13-13-13-13-13-|
 |-------------------------|-------------------------|
 |-10-10-10-10-10-10-10-10-|-10-10-10-10-10-10-10-10-|
 |-------------------------|-------------------------|
 |-------------------------|-------------------------|

|
| E E E E E E E E E E E E E E E E
 
 |-------------------------|-------------------------|
 |-10-10-10-10-10-10-10-10-|-15-15-16-16-15-15-13-13-|
 |-------------------------|-------------------------|
 |--7--7--7--7--7--7--7--7-|-12-12-13-13-12-12-10-10-|
 |-------------------------|-------------------------|
 |-------------------------|-------------------------|

[E] [E] [E] [E] [E] [E] [E] [E] [E] [E] [E] [E] [E] [E] [E] [E]  
 
 |-------------------------|-------------------------|
 |-------------------------|-------------------------|
 |--8--8--8--8--8--8--8--8-|--8--8--8--8--8--8--8--8-|
 |-------------------------|-------------------------|
 |--6--6--6--6--6--6--6--6-|--5--5--5--5--6--6--6--6-|
 |-------------------------|-------------------------|

|
| E E E E E E E E E E E E E E E E
 
 |-------------------------|-------------------------|
 |-11-11-11-11-11-11-11-11-|-15-15-16-16-15-15-13-13-|
 |-------------------------|-------------------------|
 |--8--8--8--8--8--8--8--8-|-12-12-13-13-12-12-10-10-|
 |-------------------------|-------------------------|
 |-------------------------|-------------------------|

[E] [E] [E] [E] [E] [E] [E] [E] [E] [E] [E] [E] [E] [E] [E] [E]  
 
 |-------------------------|-------------------------|
 |-------------------------|-------------------------|
 |--5--5--5--5--5--5--5--5-|--5--5--5--5--5--5--5--5-|
 |-------------------------|-------------------------|
 |--3--3--3--3--3--3--3--3-|--2--2--2--2--3--3--3--3-|
 |-------------------------|-------------------------|

|
| E E E E E E E E E E E E E E E E
 
 |-------------------------|-------------------------|
 |-10-10-10-10-10-10-10-10-|-15-15-16-16-15-15-13-13-|
 |-------------------------|-------------------------|
 |--7--7--7--7--7--7--7--7-|-12-12-13-13-12-12-10-10-|
 |-------------------------|-------------------------|
 |-------------------------|-------------------------|

[E] [E] [E] [E] [E] [E] [E] [E] [E] [E] [E] [E] [E] [E] [E] [E]  
 
 |-------------------------|-------------------------|
 |-11-11-11-11-11-11-11-11-|-11-11-11-11-11-11-11-11-|
 |-------------------------|-------------------------|
 |--8--8--8--8--8--8--8--8-|--7--7--7--7--8--8--8--8-|
 |-------------------------|-------------------------|
 |-------------------------|-------------------------|

|
| E E E E E E E E E E E E E E E E
 
 |-------------------------|-------------------------|
 |-11-11-11-11-11-11-11-11-|-15-15-16-16-15-15-13-13-|
 |-------------------------|-------------------------|
 |--8--8--8--8--8--8--8--8-|-12-12-13-13-12-12-10-10-|
 |-------------------------|-------------------------|
 |-------------------------|-------------------------|

[E] [E] [E] [E] [E] [E] [E] [E] [E] [E] [E] [E] [E] [E] [E] [E]  
 
 |-------------------------|-------------------------|
 |-13-13-13-13-13-13-13-13-|-13-13-13-13-13-13-13-13-|
 |-------------------------|-------------------------|
 |-10-10-10-10-10-10-10-10-|-10-10-10-10-10-10-10-10-|
 |-------------------------|-------------------------|
 |-------------------------|-------------------------|

|
| E E E E E E E E E E E E E E E E
 
 |-------------------------|-------------------------|
 |-10-10-10-10-10-10-10-10-|-15-15-16-16-15-15-16-16-|
 |-------------------------|-------------------------|
 |--7--7--7--7--7--7--7--7-|-12-12-13-13-12-12-13-13-|
 |-------------------------|-------------------------|
 |-------------------------|-------------------------|

~ ~ ~
S S S S Q Q S S S S H H S S S S Q Q S S S S
 
 |-----------------------|-----------|------------------------|
 |-----------------------|-----------|------------------------|
 |-----------------------|-----------|------------------------|
 |-----------------------|-----------|------------------------|
 |-5h6p5p3-5-----5h6p5p3-|-5---------|-5h6p5p3-5-----5h6p5p3--|
 |------------0----------|------0----|------------0-----------|

|
| ~ ~
| H Q S S S S H H S S S S Q Q S S S S
 
 |-----------------------|-----------|------------------------|
 |-----------------------|-----------|------------------------|
 |-----------------------|-----------|------------------------|
 |-----------------------|-----------|------------------------|
 |---------------5h6p5p3-|-5---------|-5h6p5p3-5-----5h6p5p3--|
 |------------0----------|------0----|------------0-----------|

Gtrs I, II
~ ~
Q Q Q Q S S S S Q Q S S S S H H q Q H
 
 |--------------|-----------------------|-----------|----------|
 |--------------|-----------------------|-----------|----------|
 |--------------|-----------------------|-----------|----------|
 |--------------|-----------------------|-----------|-5--------|
 |-5\-----------|-5h6p5p3-5-----5h6p5p3-|-5---------|-5--------|
 |-----1--4--3--|------------0----------|------0----|-5--------|

H E. E. E q Q H W
 
 |--------------|------------|-------|
 |--------------|------------|-------|
 |--------------|------------|-------|
 |------5--6--8-|-5----------|-x\----|
 |------5--6--8-|-5----------|-x\----|
 |------5--6--8-|-5----------|-x\----|

Guitar Solo
Gtr I
PM PM PM PM PM PM PM PM
E S E S E E S E S E E S E S E E S E S E
 
 |---------------------------------------|-----------------------------------|
 |---------------------------------------|-----------------------------------|
 |---------------------------------------|-----------------------------------|
 |--6----------5------5--6------5------5-|--6------5------5--6------8------9-|
 |--6-----6----5-5----5--6-6----5-5----5-|--6-6----5-5----5--6-6----8-8----9-|
 |--6-----6----5-5----5--6-6----5-5----5-|--6-6----5-5----5--6-6----8-8----9-|

|
| Gtr II
 
 | |---------------------------------3----------------------------------|

| Q Q Q Q Q Q Q Q Q Q Q Q
 
 |---------------------------------------|-18--------------------------------|
 |---------------------------------------|-----------------------------------|
 |-16b19====16-----16---16---16-----16---|------16-----16---16---16r====16---|
 |---------------------------------------|-----------------------------------|
 |---------------------------------------|-----------------------------------|
 |---------------------------------------|-----------------------------------|

PM PM PM PM
E S E S E E S E S E
 
 |-------------------------------------------------|
 |-------------------------------------------------|
 |-------------------------------------------------|
 |--6--------5--------5-----6--------5--------5----|
 |--6-----6--5-----5--5-----6-----6--5-----5--5----|
 |--6-----6--5-----5--5-----6-----6--5-----5--5----|

|
| S S S S S S S S S S S S S S S S
 
 |----------14-16-17-16----16-17-16----16-17-16----|
 |-14-16-17-------------17----------17----------17-|
 |-------------------------------------------------|
 |-------------------------------------------------|
 |-------------------------------------------------|
 |-------------------------------------------------|

PM PM PM PM
E S E S E E S E S E
 
 |----------------------------------------|
 |----------------------------------------|
 |----------------------------------------|
 |---6--------5--------5-----1---3---4----|
 |---6-----6--5-----5--5-----1-1-3-3-4----|
 |---6-----6--5-----5--5-----1-1-3-3-4----|

|
| ~~
| S S S S S S S S H
 
 |-----16---------------------------------|
 |-/19----19-17-19-17-16------------------|
 |-----------------------16-18------------|
 |----------------------------------------|
 |----------------------------------------|
 |----------------------------------------|

PM PM PM PM PM PM PM PM
E S E S E E S E S E E S E S E E S E S E
 
 |---------------------------------------|-----------------------------------|
 |---------------------------------------|-----------------------------------|
 |---------------------------------------|-----------------------------------|
 |--6----------5------5--6------5------5-|--6------5------5--6------8------9-|
 |--6-----6----5-5----5--6-6----5-5----5-|--6-6----5-5----5--6-6----8-8----9-|
 |--6-----6----5-5----5--6-6----5-5----5-|--6-6----5-5----5--6-6----8-8----9-|

|
 
 | |---------------------------------3----------------------------------|

| Q Q Q Q Q Q Q Q Q Q Q Q
 
 |---------------------------------------|-18--------------------------------|
 |---------------------------------------|-----------------------------------|
 |-16b19====16-----16---16---16-----16---|------16-----16---16---16r====16---|
 |---------------------------------------|-----------------------------------|
 |---------------------------------------|-----------------------------------|
 |---------------------------------------|-----------------------------------|

PM PM PM PM
E S E S E E S E S E
 
 |---------------------------|
 |---------------------------|
 |---------------------------|
 |--6-----5-----5--6---5---5-|
 |--6--6--5--5--5--6-6-5-5-5-|
 |--6--6--5--5--5--6-6-5-5-5-|

|
 
 | |------3-------|

| Q Q Q Q Q Q
 
 |-21----21----21------------|
 |---------------------------|
 |----18----18----18---------|
 |---------------------------|
 |---------------------------|
 |---------------------------|
 |------3-------|

Q Q Q Q Q Q
 
 |---------------------------------------------------|
 |---------------------------------------------------|
 |---------------------------------------------------|
 |--1--1--1--4--4--4---------------------------------|
 |--1--1--1--4--4--4---------------------------------|
 |--1--1--1--4--4--4---------------------------------|

|
| S S S S S S S S S S S S S S S S
 
 |-21-19-17-19-17----17------------------------------|
 |----------------21----21-19-21-19-17-19-17---------|
 |-------------------------------------------20-16---|
 |---------------------------------------------------|
 |---------------------------------------------------|
 |---------------------------------------------------|

Pre-Verse
Gtr I
W +W
 
 |--------------------------------------|--------------------------------|
 |--------------------------------------|--------------------------------|
 |--------------------------------------|--------------------------------|
 |--0-----------------------------------|--(0)---------------------------|
 |--0-----------------------------------|--(0)---------------------------|
 |--0-----------------------------------|--(0)---------------------------|

|
| Gtr II
 
 | PM--------| PM| PM----| PM-| PM----| PM|

| S S S S S S S S S S S S S S S S S S S S S S S S S S S S E E
 
 |--------------------------------------|--------------------------------|
 |--------------------------------------|--------------------------------|
 |--------------------------------------|--------------------------------|
 |--0-----0-0-0-1p0-0-0-1p0-0-0-0-0-1p0-|---0--0-3p0-0-0-0-0-1p0-0-0-3-1-|
 |--------------------------------------|--------------------------------|
 |--------------------------------------|--------------------------------|

|
| Gtr III
| ~~~~~~~~~~~~~~~~~~~~~~~~~~~~~~~~~~~~~~~~~~~~~~~~~~~~~~~~~~~~~~~~~~~~~~
| W +W
 
 |--------------------------------------|--------------------------------|
 |-17b19================================|=(17)---------------------------|
 |--------------------------------------|--------------------------------|
 |--------------------------------------|--------------------------------|
 |--------------------------------------|--------------------------------|
 |--------------------------------------|--------------------------------|

+W +W
 
 |------------------------------------|------------------------------------|
 |------------------------------------|------------------------------------|
 |------------------------------------|------------------------------------|
 |--(0)-------------------------------|--(0)-------------------------------|
 |--(0)-------------------------------|--(0)-------------------------------|
 |--(0)-------------------------------|--(0)-------------------------------|

|
 
 | PM-----| PM| PM----| PM-| PM----|

| S S S S S S S S S S S S S S S S S S S S S S S S S S S S S S S S
 
 |------------------------------------|------------------------------------|
 |------------------------------------|------------------------------------|
 |------------------------------------|------------------------------------|
 |---0--0-0-0-1p0-0-0-1p0-0-0-0-0-1p0-|---0--0-3p0-0-0-0-0-5h6-0-0-5h6-0-0-|
 |------------------------------------|------------------------------------|
 |------------------------------------|------------------------------------|

|
|~~~~~~~~~~~~~~~~~~~~~~~~~~~~~~~~~~~~~~~~~~~
| +W +W
 
 |------------------------------------|------------------------------------|
 |-(17)-------------------------------|-(17)-------------------------------|
 |------------------------------------|------------------------------------|
 |------------------------------------|------------------------------------|
 |------------------------------------|------------------------------------|
 |------------------------------------|------------------------------------|

W +W
 
 |------------------------------------|--------------------------------|
 |------------------------------------|--------------------------------|
 |------------------------------------|--------------------------------|
 |---0--------------------------------|--(0)---------------------------|
 |---0--------------------------------|--(0)---------------------------|
 |---0--------------------------------|--(0)---------------------------|

|
 
 | PM-----| PM| PM----| PM-| PM----| PM|

| S S S S S S S S S S S S S S S S S S S S S S S S S S S S E E
 
 |------------------------------------|--------------------------------|
 |------------------------------------|--------------------------------|
 |------------------------------------|--------------------------------|
 |---0--0-0-0-1p0-0-0-1p0-0-0-0-0-1p0-|---0--0-3p0-0-0-0-0-1p0-0-0-3-1-|
 |------------------------------------|--------------------------------|
 |------------------------------------|--------------------------------|

|
| >
| ~~~~~~~~~~~~~~~~~~~~~~~~~~~~~~~~~~~~~~~~~~~~~~~~~~~~~~~~~~~~~~~~~~~
| +W +W
 
 |------------------------------------|--------------------------------|
 |-(17)-------------------------------|-(17)---------------------------|
 |------------------------------------|--------------------------------|
 |------------------------------------|--------------------------------|
 |------------------------------------|--------------------------------|
 |------------------------------------|--------------------------------|

~~~
+W +E E q E E Q
 
 |------------------------------------|-----------------------------|
 |------------------------------------|------/4-3--/4-1-------------|
 |------------------------------------|-----------------[3]---------|
 |--(0)-------------------------------|--(0)------------------------|
 |--(0)-------------------------------|--(0)------------------------|
 |--(0)-------------------------------|--(0)------------------------|

|
 
 | PM-----| PM| PM----| PM ~~~

| S S S S S S S S S S S S S S S S E E q E E Q
 
 |------------------------------------|-----------------------------|
 |------------------------------------|------/4-3--/4-1-------------|
 |------------------------------------|-----------------[3]---------|
 |---0--0-0-0-1p0-0-0-1p0-0-0-0-0-1p0-|---0-------------------------|
 |------------------------------------|-----------------------------|
 |------------------------------------|-----------------------------|

|
|~~~~~~~~~~~~~~~~~~~~~~~~~~~~~~~~~~~~~~~~~~~
| +W +H H
 
 |------------------------------------|-----------------------------|
 |-(17)-------------------------------|-(17)-----------------17r----|
 |------------------------------------|-----------------------------|
 |------------------------------------|-----------------------------|
 |------------------------------------|-----------------------------|
 |------------------------------------|-----------------------------|

Verse
[E] [E] [E] [E] [E] [E] [E] [E] [E] [E] [E] [E] [E] [E] [E] [E] [E] [E] [E] [E] [E] [E] [E] [E] [E] [E] [E] [E] [E] [E] [E] [E]  
 
 |-------------------|------------------|-------------------|-----------------|
 |-------------------|------------------|-------------------|---9-9-8-8-------|
 |-------------------|------------------|-------------------|---x-x-x-x-3-3---|
 |-------/8-------/8-|-------/8---------|-------/8-------/8-|---6-6-5-5-x-x-1-|
 |-0-0-0-/6-0-0-0-/6-|-0-0-0-/6-0-0-0-1-|-0-0-0-/6-0-0-0-/6-|-0---------1-1-1-|
 |-0-0-0----0-0-0----|-0-0-0----0-0-0-1p|=0-0-0----0-0-0----|-0-------------1-|

|
| E E E E E E E E E E E E E E E E E E E E E E E E E E E E E E E E
 
 |-------------------|------------------|-------------------|-----------------|
 |-------------------|------------------|-------------------|---9-9-8-8-------|
 |-------------------|------------------|-------------------|---x-x-x-x-3-3---|
 |-------/8-------/8-|-------/8---------|-------/8-------/8-|---6-6-5-5-x-x-1-|
 |-0-0-0-/6-0-0-0-/6-|-0-0-0-/6-0-0-0-1-|-0-0-0-/6-0-0-0-/6-|-0---------1-1-1-|
 |-0-0-0----0-0-0----|-0-0-0----0-0-0-1p|=0-0-0----0-0-0----|-0-------------1-|

~~~
E E E E E E E E E E E E E E E E E E E E E E E E E E q E E Q
 
 |-------------------|------------------|-------------------|-------------------|
 |-------------------|------------------|-------------------|-------------------|
 |-------------------|------------------|-------------------|--------------[3]--|
 |-------/8-------/8-|-------/8---------|-------/8-------/8-|-------------------|
 |-0-0-0-/6-0-0-0-/6-|-0-0-0-/6-0-0-0-1-|-0-0-0-/6-0-0-0-/6-|-0-/6-5--/6-3------|
 |-0-0-0----0-0-0----|-0-0-0----0-0-0-1p|=0-0-0----0-0-0----|-0-----------------|

|
| ~~~
| E E E E E E E E E E E E E E E E E E E E E E E E E E q E E Q
 
 |-------------------|------------------|-------------------|-------------------|
 |-------------------|------------------|-------------------|-------------------|
 |-------------------|------------------|-------------------|--------------[3]--|
 |-------/8-------/8-|-------/8---------|-------/8-------/8-|-------------------|
 |-0-0-0-/6-0-0-0-/6-|-0-0-0-/6-0-0-0-1-|-0-0-0-/6-0-0-0-/6-|-0-/6-5--/6-3------|
 |-0-0-0----0-0-0----|-0-0-0----0-0-0-1p|=0-0-0----0-0-0----|-0-----------------|

Outro
E E H. +W
 
 |------------------|---------------------|
 |------------------|---------------------|
 |------------------|---------------------|
 |-5-5-5------------|-(5)-----------------|
 |-5-5-5------------|-(5)-----------------|
 |-5-5-5------------|-(5)-----------------|

|
| E E E E E E E E +E E E E E E +E E
 
 |------------------|---------------------|
 |-8-8-8--8-8-8-8-8-|-(8)-8-8-8-8---------|
 |------------------|-------------8-(8)-8-|
 |-5-5-5--5-5-5-5-4-|-(4)-4-4-4-4---------|
 |------------------|-------------6-(6)-6-|
 |------------------|---------------------|

E E H. +W
 
 |--------------------------|---------------------------|
 |--------------------------|---------------------------|
 |--------------------------|---------------------------|
 |--8--8--8-----------------|--(8)----------------------|
 |--8--8--8-----------------|--(8)----------------------|
 |--8--8--8-----------------|--(8)----------------------|

|
| E E E E E E E E +E E E E E E E E
 
 |--------------------------|---------------------------|
 |-11-11-11--11-11-11-11-11-|-(11)-11-11-11-11-11-11-11-|
 |--------------------------|---------------------------|
 |--8--8--8---8--8--8--8--7-|--(7)--7--7--7--8--8--8--8-|
 |--------------------------|---------------------------|
 |--------------------------|---------------------------|

E E H. +W W +W
 
 |---------------------|--------------------|----------|--------|
 |---------------------|--------------------|----------|--------|
 |---------------------|--------------------|----------|--------|
 |-10-10-10------------|-(10)---------------|-0--------|-(0)----|
 |-10-10-10------------|-(10)---------------|-0--------|-(0)----|
 |-10-10-10------------|-(10)---------------|-0--------|-(0)----|

|<br /

Important: The song above is NOT stored on the Chordie server. The original song is hosted at www.guitaretab.com. Chordie works as a search engine and provides on-the-fly formatting. Chordie does not index songs against artists'/composers' will. To remove this song please click here.

Text color:
Chord color:
Chord grids: 
Font size:    
Page size: 

B E
Rate #1 of 2 versions

Login - add to songbook

SHARE PAGE  




You need to log in to post comments