Guitar Tabs, Chords and Lyrics
Update 25:10. 13:00. Site is back up running again. Songbooks are recovered. Woring on getting search back up..


Last Breath  Mad Caddies

 
 -------------------------------------------------------------------------------

Last Breath - Mad Caddies
 
 -------------------------------------------------------------------------------

Tabbed by: schleichi
Email: lemmyfredericksen@yahoo.de
Tuning: standard
chords
 
 e|----4-------4---5---2-----5---7----------------------------------------------------|
 B|----5-------4---5---2-----5---7----------------------------------------------------|
 G|----6-------5---4---2-----6---8----------------------------------------------------|
 D|----6-------6---5---4-----7---9----------------------------------------------------|
 A|----4-------6---5---4-----7---9----------------------------------------------------|
 E|------------4---3---2-----5---7----------------------------------------------------|

[Cm#] [G#] [G] [Fm#] [A] [B]  
trumpet1 0:09
 
 D|------------------------------------------------------------------------------------------|
 A|-----4-----4------4-----7-6--------4----4------4-----6~~---6~-------------3~~~~-----------|
 E|-3/4---3/4--5--3/4---3/4----4--3/4--3/4-5--3/4---3/4---3/4---3/4-4-3-2~~~-----------------|

|trumpet 2
 
 e|-----------------------------------4------------4---3--------7----9-----------------------|
 B|---------------------------------5--4-5-4------5--5-----9-8-7--9-8---9-8-7--10-9-7---9~~--|
 G|-------------------------------6---------6----6-----------------------------------9-8-----|
 D|------------------------------------------------------------------------------------------|

0:23 0:30
[Cm#] [G] [G#] [G#] [G] [Fm#] [G#]  
 
 e|--------------------------------------7-----9------------------------------|
 B|-------9----------------9--8~~---9-8----9-8---9-8-7--10-9-7---9~-----------|
 G|--9-8-9--8-9-8-6---6-9-8--9---------8----------------------9-8-------------|
 D|---------------------------------------------------------------------------|
 A|---------------------------------------------------------------------------|
 E|---------------------------------------------------------------------------|

[Cm#]Still awake on a winters day skies are gray and it's [G#]cold
[G#]Smoke signals from my l[Fm#]ast cigarette Lets me kn[A]ow that it's f[G#]inally gettn [Cm#]old
[Cm#]Everybody hates me for the night before The man you saw wasn't [G#]me
[G#]And now there's blood upon the b[Fm#]athroom floor[A] I've[G#] got a[C#] disease
[A]Wait a while all I need is a fr[Fm#]iend
Come on s[A]tay a while won't you please u[Fm#]nderstand, un[G#]derstand?
[Cm#]I'm fucked up with n[A]othing ah[B]ead but the e[Cm#]nd
I know that I'll never get sober And
[Cm#]I'm fed up with this m[A]iserable li[B]fe after d[E]eath
[E]I know that[G#] I've taken my last bre[Cm#]ath
Repeat intro from "0:23"
Verse 2 same chords like 1
Memories of how it used to be Painted thick on my walls
Cold illusions pumping through my veins
Felt them there but I didn't hear them call
Washed away all my darkest fears Shoved them down to my soul
I keep them aged llike a vintage wine
I'm sure they'll come out when they're ready to go
pre chours (wait a while...
chours (I'm fucked up ....
trumpet during prechours (1:06/2:19)
 
 e|--/12-11-9---12-11-------12-11-9--14-12-11-------------|
 B|------------------12-----------------------------------|
 G|--------------------------------------------all-2x-----|
 D|-------------------------------------------------------|
 A|-------------------------------------------------------|
 E|-------------------------------------------------------|

OUTRO (3:04)
[Cm#] [A] [B] [Cm#] [A] [B] [Cm#] [A] [B] [Cm#]  
 
 e|-------------------------------/9/9-11~------------------------12-9----|
 B|-------9----------------------9-------------9-------------------9-9----|
 G|---6-8--8-9-8-6-----------6-8-----------6-8--8-9-8-6---6-6-8-9---------|
 D|-----------------------------------------------------------------------|
 A|-----------------------------------------------------------------------|
 E|-----------------------------------------------------------------------|

.... my
last breath....
if you can find some other Mad Caddies tabs with trumpet and trombone on the internet - tell me
IF YOU CANT- RATE THIS TAB WITH 5 F*****ING STARS!
=============================================================================

Important: The song above is NOT stored on the Chordie server. The original song is hosted at www.guitaretab.com. Chordie works as a search engine and provides on-the-fly formatting. Chordie does not index songs against artists'/composers' will. To remove this song please click here.

Text color:
Chord color:
Chord grids: 
Font size:    
Page size: 

A B C# E G G#
Rate #1 of 2 versions

Jango Player

Login - add to songbook

SHARE PAGE  




You need to log in to post comments