Guitar Tabs, Chords and Lyrics
Major upgrade!! After one year development the new version of Chordie is now online! Please give feedback.


Game Show  Mad Caddies

 
 -----------------------------------------------------------------------------

Game Show - Mad Caddies
 
 -----------------------------------------------------------------------------

Tabbed by: schleichi
Email: lemmyfredericksen@yahoo.de
Tuning: standard
INTRO/Verse
3x
 
 e|-----------5---|------------|
 B|--3--5--3--5---|------------|
 G|--5--8--5--8---|--4-5-6-----|
 D|--4--7--4--7---|--4-5-6-----|
 A|--5--7--5--7---|--2-3-4-----|
 E|-----5-----5---|------------|

[D7] [G] [D7] [G] [B] [C] [C#]  
Intro Trumpet ______1+3_________2_________4_
 
 e|--------------------------|---------|----------|---------|
 B|--3--5-7--3-5-7--5-3-1-0.-|-0-3---0-|--0-1-2-3-|-3-5-6-7-|
 G|--4--5-7--4-5-7--5-4-2-0.-|-0-4-2-0-|--0-2-3-4-|-4-5-6-7-|
 D|--------------------------|-----4---|----------|---------|
 A|--------------------------|---------|----------|---------|
 E|--------------------------|---------|----------|---------|

[D7]So come on down and try your hand at the ol[G]dest game in town
Pull up a chair and dont be scared, youve got to play it round by round
Spin the wheel and take a hit it doesnt matter what you chose
You can sink your battle ship but theres a good chance you will lose
INTRO
A little lady walking down the street she was born in a good nice town
You think youve got what it takes to be her man
So you try about and ask a lady if she would like to meet
PRECHORUS
 
 Maybe this time things might go your way |--------------|-0--0--0--0---|
 Your never going to win unless you play |--------------|-0--2--0--2---|
 |-7-7--6-6-5-5-|-0--2--0--2---|
 |-5-5--4-4-3-3-|-2--2--2--2---|
 |--------------|-2--0--2--0---|
 |--------------|-0-----0------|
 CHORUS e|----------------|---------------|
 Break down and take the chances, B|----------------|---------------|
 nevermind the circumstances G|-7-7---------3x-|-5-5-5---------|
 Break down and keep on playing, D|-7-7--5-5-5-----|-5-5-5--7-7-7--|
 roll the dice and bet it all, A|-5-5--5-5-5-----|-3-3-3--7-7-7--|
 put the quater in and make the call E|------3-3-3-----|--------5-5-5--|

SOLO 1 (1:33)
 
 e|-14-12-14-12---12--------------------------------------------------------|
 B|-------------15--15--13-15-13-12-13--12-12-12-15--12---------------------|
 G|------------------------------------------------14-----------------------|
 D|-------------------------------------------------------------------------|
 e|-17-15-17-15--14-15-14--12-14-12----12-15-----12--------x-10--x12-x-14---|
 B|----------------------------------15-----15-15--12-15~~------------------|
 G|-------------------------------------------------------------------------|
 D|-------------------------------------------------------------------------|

VERSE
PRECHORUS
CHORUS 2X
You got to breakdown (whoaa)
BRIDGE (2:28)
 
 e|--------------------------|------3~~~----------|
 B|-3-5-6--3-5-6-5-3---------|---2--5~~~----------|
 G|------------------5-4-----|--2-----------------|
 D|-----------------------4X-|--------------------|
 A|--------------------------|--------------------|
 E|--------------------------|--------------------|

|
 
 e|--------------------------|--------------------|
 B|--------------------------|--------------------|
 G|-----7-----------------4X-|--------------------|
 D|-----7-----------(-5-)----|--7-7-7-7-7-7-------|
 A|-----5-----------(-5-)----|--7-7-7-7-7-7-------|
 E|-----------------(-3-)----|--5-5-5-5-5-5-------|

You got to breakdown (whoaa) - LIKE INTRO
| / slide up
| \ slide down
| h hammer-on
| p pull-off
| ~ vibrato
| + harmonic
| x Mute note
============================================================================

Important: The song above is NOT stored on the Chordie server. The original song is hosted at www.guitaretab.com. Chordie works as a search engine and provides on-the-fly formatting. Chordie does not index songs against artists'/composers' will. To remove this song please click here.

Text color:
Chord color:
Chord grids: 
Font size:    
Page size: 

B C C# D7 G
Rate #2 of 3 versions

Jango Player

Login - add to songbook

SHARE PAGE  




You need to log in to post comments