Guitar Tabs, Chords and Lyrics
Major upgrade!! After one year development the new version of Chordie is now online! Please give feedback.


Give It 2 Me   Madonna

 
 -------------------------------------------------------------------------------

 


 "Give It 2 Me" - MADONNA


 

 
 -------------------------------------------------------------------------------

 


 Tabbed by: Sebasti√°n Ara. (Buenos Aires, Argentina)


 Email MSN: playing.the.angel_@hotmail.com


 


 Tuning: Half step lower (Eb Ab Ed Gb Bb eb)


 


 [Arrenged to guitar] 


 


 INTRO/BASS LINE [wbicb is played all along tbe song]:


 

 
 Gb|--------------------------|----------------------------------------------------|
 Db|--------------------------|----------------------------------------------------|
 Ab|--------------------------|---------------------------5-5-3-2------------------|
 Eb|-0-3p0--5-x-5-x-5-x-5-5-5-|-0h3p0h3p0-5-5-5-x-5-5-5-5---------5-5-5-5-x-5-5-5--|

 


 [play tbis all along tbe song] 


 


 "What are you waiting for?


 Nobody's gonna show you how


 Why work for someone else


 To do what you can do right now?


 


 Got no boundaries and no limits


 If there's excitement, put me in it


 If it's against the law, arrest me


 If you can handle it, undress me"


 


 PRE-CHORUS:


 


 Synth.:


 

 
 eb|-----------|
 Bb|-----------|
 Gb|-9-9-9-9-9-|
 Db|-----------|
 Ab|-7-7-7-7-7-|
 Eb|-----------| [repeats]

 


 "Don't stop me now, don't need to catch my breath


 I can go on and on and on


 When the lights go down and there's no one left


 I can go on and on and on"


 


 CHORUS:


 "Give it to me, yeah


 No one's gonna show me how


 Give it to me, yeah


 No one's gonna stop me now"


 


 Main Riff:


 

 
 eb|-10-7-8-----|
 Bb|--------10--|
 Gb|------------|
 Db|------------|
 Ab|------------|
 Eb|------------|

 


 [repeats] 


 


 Chorus ends with:


 eb|191919191919191919


 

 
 Bb|------------------|
 Gb|------------------|
 Db|------------------|
 Ab|------------------|
 Eb|------------------|

 


 


 VERSES [witb tbe same bass line]:


 "They say that a good thing never lasts


 And then it has to fall


 Those are the the people that did not


 Amount to much at all"


 


 BRIDGE:


 

 
 eb|-5*-5*-5*-5*--|
 Bb|--------------|
 Gb|--------------|
 Db|--------------|
 Ab|--------------|
 Eb|--------------|

 


 [repeats] 


 


 "Get stupid, get stupid, get stupid, don't stop it (what?)


 Get stupid, get stupid, get stupid, don't stop it (what?)


 Get stupid, get stupid, get stupid, don't stop it (what?)


 Get stupid, get stupid, get stupid, don't stop it..."


 


 You can here some bells that do this once:


 eb|-4...-5...-


 

 
 Bb|-----------|
 Gb|-----------|
 Db|-----------|
 Ab|-----------|
 Eb|-----------|


Important: The song above is NOT stored on the Chordie server. The original song is hosted at www.guitaretab.com. Chordie works as a search engine and provides on-the-fly formatting. Chordie does not index songs against artists'/composers' will. To remove this song please click here.

This song is displayed as text-only. Transposing and tuning is only available for chordpro-songs.
Rate #1 of 7 versions

Jango Player

Login - add to songbook

SHARE PAGE  




You need to log in to post comments