Guitar Tabs, Chords and Lyrics
Major upgrade!! After one year development the new version of Chordie is now online! Please give feedback.


Quite Emotional  Madrugada

Author/Artist: Madrugada
Title: Quite emotional
Album: Industrial silence
Transcribed by: RH
Not sure about if the F and A# chords are correct, but the rest
should be OK.
Intro:
Version #1
[D] [Bm] [F#m]  
 
 e||------------------------2----------------2---------------2------|
 B||---------7p5--------3-----3---------2------2--------2------2----|
 G||----7--------7--------4-----4---------2------2--------2------2--|
 D||------7---------------------------------------------------------|*2
 A||-5---------------2----------------------------------------------|
 E||---------------------------------2---------------2--------------|

Version #2
D Hm F#m *2
 
 e||------------2------------------2------------------2-------------|
 B||-------3-------3--3-------3-------3--3-------2-------2----------|
 G||----------2------------------4------------------2-------2-------|
 D||------------4-------------4----------4--------------------------|*2
 A||---5---5----------5----2-------2------------------4-----4-------|
 E||------------------------------------------2--2------------------|

Verse:
[D] [Bm] [F#m]  
 
 e||----------------------------------------------------------------|
 B||---------7---------------3---------------2---------------2------|
 G||-----------7---------------4---------------2---------------2----|
 D||----7--------7------4--------4-------4-------4------4--------4--|*3
 A||-5---------------2----------------------------------------------|
 E||----------------------------------2--------------2--------------|

[D] [Bm] [F#m]  
 
 e||-----------------------------------------2----------------------|
 B||---------7---------------3-----------------2--------------------|
 G||-----------7---------------4-----------------2------------------|
 D||----7--------7------4--------4-------4--------------------------|
 A||-5---------------2----------------------------------------------|
 E||----------------------------------2-----------------------------|

First Chorus:
F# G F ? A# ?(Picking)
 
 e||--------------------------------------------------1----1--------|
 B||--------------------------------------------------1----3--------|
 G||------------------------7-------------------------2----3--------|
 D||------------4-5-5-5-5-5-7-------------------------3----3--------|
 A||-4---4--4-4-4-5-5-5-5-5-5--5-5-5h7-5-5-3-2----3---1----1--------|
 E||-2---2--2-2-2-3-3-3-3-3---------------------------1-------------|

[Dsus2] [A] [E] [Dsus2] [A] [E]  
 
 e||-0-----------0-------0----0--------------0------0----0--0-------|
 B||-3-----------2--0----0------0----0-------3------2----0----0-----|
 G||-2------2----2----1--1--------1--1-------2------2----1------1---|
 D||-0------2----2-------2-----------2----2--0------2----2----------|
 A||--------0------------2-----------2----2---------0---------------|
 E||---------------------0----------------0-----------------------0-|

[E] [F] [F#] [E] [F] [F#]  
 
 e||----------------------------------------------------------------|
 B||----------------------------------------------------------------|
 G||----------------------------------------------------------------|
 D||-2-2--3--4----2-2--3--4-----------------------------------------|
 A||-2-2--3--4----2-2--3--4-----------------------------------------|
 E||-0-0--1--2----0-0--1--2-----------------------------------------|

Second Chorus with outro:
F# G Dsus2 F ? A# ?(Picking)
 
 e||-------------------------------------------------1----1---------|
 B||-------------------------------------------------1----3---------|
 G||------------------------7------------------------2----3---------|
 D||------------4-5-5-5-5-5-7------------------------3----3---------|
 A||-4---4--4-4-4-5-5-5-5-5-5--5-5-5h7-5-5-3-2---3---1----1---------|
 E||-2---2--2-2-2-3-3-3-3-3--------------------------1--------------|

[Dsus2] [A] [E] [Dsus2] [A] [E]  
 
 e||-0-----------0------------0--------------0------0--0------0-----|
 B||-3-----------2--0---------0------0-------3------2--2-0----0-----|
 G||-2-----------2----1--1----1------1-------2------2--2---1--1-----|
 D||-0------2----2-------2----2------2----2--0------2---------2-----|
 A||--------0------------2----2------2----2---------0---------2-----|
 E||---------------------0----0-----------0-------------------------|

[Dsus2] [A] [E] [Dsus2]  
 
 e||-0-----0---0------0-----0---------0---0------0---0-------0------|
 B||---0---0-----0----3-----2---2-0---0-----0----0-----0-----3------|
 G||-----1-1-------1--2-----2---2---1-1-------1--1-------1---2------|
 D||-------2----------0-----2---2-----2----------2-----------0------|
 A||-------2----------------0---------2----------2------------------|
 E||-------0------------------------0----------0--------------------|

[A] [E]  
 
 e||-0---------------|
 B||-2--------0------|
 G||-2--------1------|
 D||-2--------2------|
 A||-0--------2------|
 E||----------0------|

[E] [F] [F#] [E] [F] [F#]  
 
 e||----------------------------------------------------------------|
 B||----------------------------------------------------------------|
 G||-------------------------------------------2--4b-b4-b4rp2-------|
 D||-2-2--3--4----2-2--3--4----2-2--3--4---2h4----------------4-----|
 A||-2-2--3--4----2-2--3--4-----------------------------------------|
 E||-0-0--1--2----0-0--1--2-----------------------------------------|
 e||--------------------5-7/9---9----9------------------------------|
 B||-----5h7-5-7----5h7-----------10---10----10-10h12-10------------|
 G||-4h6------------------------------------------------------------|
 D||----------------------------------------------------------------|
 A||----------------------------------------------------------------|
 E||----------------------------------------------------------------|
 e||----------------------------------------------------------------|
 B||----------------------------------------------------------------|
 G||----------------------------------------------------------------|
 D||-2-2--3--4-------2-2--3--4-----2-2--3--4------------------------|
 A||-2-2--3--4-------2-2--3--4-----2-2--3--4------------------------|
 E||-0-0--1--2-------0-0--1--2-----0-0--1--2------------------------|


Important: The song above is NOT stored on the Chordie server. The original song is hosted at www.guitaretab.com. Chordie works as a search engine and provides on-the-fly formatting. Chordie does not index songs against artists'/composers' will. To remove this song please click here.

Text color:
Chord color:
Chord grids: 
Font size:    
Page size: 

A Bm D Dsus2 E F F# F#m
Rate #2 of 3 versions

Login - add to songbook

SHARE PAGE  




You need to log in to post comments