Guitar Tabs, Chords and Lyrics
Major upgrade!! After one year development the new version of Chordie is now online! Please give feedback.


Hands Up - I Love You  Madrugada

Toggle highlighting!
Author/Artist: Madrugada
Title: Hands up - I love you
Album: The Nightly Disease
Transcribed by: DMS & RH
Standard tuning (EADGBE)
Main Riff:
[Am] [F]  
 
 e||-0-----1-----0-----1-----0----------1--------1-----0-----1---|
 B||-1-----1-----1-----1-----1------1-0-1----------1---1-----1---|
 G||-2-----2-----2-----2-----2----------2------2-----2-2-----2---|
 D||-2-----3-----2-----3-----2----2-----3----3---------2-----3---|
 A||-0-----3-----0-----3-----0----------3--------------0-----3---|
 E||-------1-----------1----------------1--------------------1---|
 e||-0----------1--------1---------------------------------------|
 B||-1------1-0-1----------1-------------------------------------|
 G||-2----------2------2-----2-----------------------------------|
 D||-2----2-----3----3-------------------------------------------|
 A||-0----------3------------------------------------------------|
 E||------------1------------------------------------------------|

(1:53 -2:09) G F G F
Main Riff 2 (2:58 -4:00) Not 100%:
[G] [Dm] [Am] [C] [G] [Dm] [Am]  
 
 e||-3-----0-------1-0--0------------------3-----0-------1-0--0--|
 B||-3-----3------------1--------------1---3-----3------------1--|
 G||-0-----2-----2------2----------0-------0-----2-----2------2--|
 D||-0-----0---0--------2--------2---2-----0-----0---0--------2--|
 A||-2------------------0----3-------------2------------------0--|
 E||-3-------------------------------------3---------------------|

[G] [Dm] [Am]  
 
 e||-------------------3-----0-------1-0--0----------------------|
 B||----------------1--3-----3------------1-----1-0--------------|
 G||------------0------0-----2-----2------2----------------------|
 D||--------------2----0-----0---0--------2---2------------------|
 A||--------3----------2------------------0---------3b--3bp0-3---|
 E||-------------------3----------------------------3b--3bp0-3---|

[Am] [F]  
 
 e||--------------0--3-1-0---------------------------------------|
 B||--------------1--------3-1-0-1-1--1--------------------------|
 G||--------------2--------------2-2--2--------------------------|
 D||--------------2--------------3-3--3--------------------------|
 A||-3/8-7-5--3-2-0--------------3-3--3--------------------------|
 E||---6-5-3--1-0------------------------------------------------|

Rest of the song you play Am(sometimes with riff) and F with
disturtion
Riff before Solo 1:
 
 e||-----------------------------------------------------------|
 B||-----------------------------------------------------------|
 G||----1-/-2---2--/-5---4-------------------------------------|
 D||-2-----------------------2-/-3-----------------------------| x2
 A||-----------------------------------------------------------|
 E||-----------------------------------------------------------|

Solo 1 (1:04):
 
 e||-----------------------------------------------------------|
 B||-----------------------------------------------------------|
 G||-----------------------------------------------------------|
 D||-----------------------------------------------------------| x2
 A||------5-5/7-5----5--------5------5-5/7-5----5--------------|
 E||-5--8---------8-----5--8----5--8----------8----5-8---------|

Solo 2 (4:50):
 
 e||-----------------------------------------------------------|
 B||-----------------------------------------------------------|
 G||-----------------------------------------------------------|
 D||-----------------------------------------------------------|
 A||------5-5/7-5----5--------5------5-5/7-5----5--------------|
 E||-5--8---------8-----5--8----5--8----------8----5-8---------|
 e||-----------------------------------------------------------|
 B||-----------------------------------------------------------|
 G||-----------------------------------------------------------|
 D||-----------------------------------------------------------|
 A||------5--5/7----5---------5------5-5/7-5---7/5-------------|
 E||-5--8---------8-----5--8----5--8---------8-----5-8---------|
 e||-----------------------------------------------------------|
 B||-----------------------------------------------------------|
 G||-----------------------------------------------------------|
 D||---------------------------------------5-------------------|
 A||------5-5/7-5----5--------5------5-5/7---7-5---------------|
 E||-5--8---------8-----5--8----5--8-------------8-5-8---------|
 e||-----------------------------------------------------------|
 B||-----------------------------------------------------------|
 G||-----------------------------------------------------------|
 D||-----------------------------------------------------------|
 A||------5--5/7----5---------5------5-5/7-5---7/5-------------|
 E||-5--8---------8-----5--8----5--8---------8-----5-8---------|
 --------------------------------------------------------------------------------
 --------------------------------------------------------------------------------


Important: The song above is NOT stored on the Chordie server. The original song is hosted at www.guitaretab.com. Chordie works as a search engine and provides on-the-fly formatting. Chordie does not index songs against artists'/composers' will. To remove this song please click here.

Text color:
Chord color:
Chord grids: 
Font size:    
Page size: 

Am C Dm F G
Rate #1 of 1 versions

Login - add to songbook

SHARE PAGE  




You need to log in to post comments