Guitar Tabs, Chords and Lyrics
Major upgrade!! After one year development the new version of Chordie is now online! Please give feedback.


Lá vem o alemão  Mamonas Assassinas

Tom: D
Intro: D F#m G A
(solo: thiago_guitarrista)
 
 e||--10-10-10-10-------10---10-12-10-12-10--------------------------10-9----12-12-12-12--12-12--||
 B||--------------10-12---------------------10-10-10-7-8-10----10-12------10---------------------||
 G||---------------------------------------------------------------------------------------------||
 D||---------------------------------------------------------------------------------------------||
 A||---------------------------------------------------------------------------------------------||
 E||---------------------------------------------------------------------------------------------||

[D]Só de pensar que nós dois éramos [F#m]dois
Eu o feijão, você o arr[G]oz
Temperados com Saz[A]ón
[D]Só de lembrar nós na Kombi no do[F#m]mingo
Nosso amor era tão l[G]indo,
Nós descíamos pro [A]Boqueirão
[D]A Kombi quebrada lá na [F#m]praia
E você de mini-s[G]aia
Dando bola para um [A]alemão
O [D]alemão de carro conver[F#m]sível
Eu mexendo nos "fu[G]zível"
Nem vi quando você [A]me deixou
Refrão:
Subiu a s[D5]erra
Me deixou no Boquei[F#m5]rão
Arrombou meu coraç[G5]ão
Depois desaparec[A5]eu
Fiquei na m[D5]erda
Nas areias do des[F#m5]tino
Me tratou como um su[G5]íno
Cuspiu no prato que com[A5]eu
[D] [F#m] [G] [A]  
 
 e||-10-10-10-10-------10---10-12-10-12-10--------------------------10-9----12-12-12-12-------12-14||
 B||-------------10-12---------------------10-10-10-7-8-10----10-12------10-------------10/12------||
 G||-----------------------------------------------------------------------------------------------||
 D||-----------------------------------------------------------------------------------------------||
 A||-----------------------------------------------------------------------------------------------||
 E||-----------------------------------------------------------------------------------------------||
 e||--10-10-10-10-------10---10-12-10-12-10--------------------------10-9----12-12-12-12--12-12--||
 B||--------------10-12---------------------10-10-10-7-8-10----10-12------10---------------------||
 G||---------------------------------------------------------------------------------------------||
 D||---------------------------------------------------------------------------------------------||
 A||---------------------------------------------------------------------------------------------||
 E||---------------------------------------------------------------------------------------------||

O am[D]or é uma faca de dois [F#m]legumes
A luz anal de um vaga[G]lume
Que ilumina o meu sofr[A]er
[D]Eu ainda sinto o seu per[F#m]fume
Um cheirinho de est[G]rume
Não tá fácil de te [A]esquecer
[D]Toda a vez que eu lembro de vo[F#m]
Me dá vontade de bat[G]er
Te espancar, ó meu am[A]or
[D]Só porque ele é lindo, loiro e [F#m]forte
Tem dinheiro e um Esc[G]ort
Como Modess, você [A]me trocou ...refrão(2x)

Important: The song above is NOT stored on the Chordie server. The original song is hosted at www.guitaretab.com. Chordie works as a search engine and provides on-the-fly formatting. Chordie does not index songs against artists'/composers' will. To remove this song please click here.

Text color:
Chord color:
Chord grids: 
Font size:    
Page size: 

A A5 D D5 F#m G G5
Rate #1 of 1 versions

Login - add to songbook

SHARE PAGE  



You need to log in to post comments