Guitar Tabs, Chords and Lyrics
Login is temporarily disabled for some users. Do not panic. Will be back in an hour or two. DO NOT REREGISTER!!


100 Dollars  Manchester Orchestra

Tuned 1/2 step down
Enjoy
Intro
 
 Eb|---------------------|
 Bb|---------------------|
 Gb|---------------------|
 Db|---------------------| 2X
 Ab|--14-14-14-14-14-14--|
 Eb|--12-12-12-12-12-12--| 

Verse
Several womens magazines...
 
 Eb|---------------------|
 Bb|---------------------|
 Gb|---------------------|
 Db|---------------------| 2X
 Ab|--14-14-14-14-14-14--|
 Eb|--12-12-12-12-12-12--| 

...tried to call...
 
 Eb|---------------|
 Bb|---------------|
 Gb|---------------|
 Db|---------------|
 Ab|--7-7-7-7-7-7--|
 Eb|--5-5-5-5-5-5--| 

...answered.
 
 Eb|---------------------|
 Bb|---------------------|
 Gb|---------------------|
 Db|---------------------|
 Ab|--14-14-14-14-14-14--|
 Eb|--12-12-12-12-12-12--| 

It's not even that...
 
 Eb|---------------------|
 Bb|---------------------|
 Gb|---------------------|
 Db|---------------------| 2X
 Ab|--14-14-14-14-14-14--|
 Eb|--12-12-12-12-12-12--| 

...there's an under...
 
 Eb|---------------|
 Bb|---------------|
 Gb|---------------|
 Db|---------------|
 Ab|--7-7-7-7-7-7--|
 Eb|--5-5-5-5-5-5--| 

...standing.
 
 Eb|---------------------|
 Bb|---------------------|
 Gb|---------------------|
 Db|---------------------|
 Ab|--14-14-14-14-14-14--|
 Eb|--12-12-12-12-12-12--| 

And I offered you..
 
 Eb|---------------|
 Bb|--5-5-5-5-5-5--|
 Gb|--6-6-6-6-6-6--|
 Db|--6-6-6-6-6-6--| 2X
 Ab|--4-4-4-4-4-4--|
 Eb|---------------| 

...kitchen.
 
 Eb|---------------|
 Bb|---------------|
 Gb|--6-6-6-6-6-6--|
 Db|--7-7-7-7-7-7--|
 Ab|--7-7-7-7-7-7--|
 Eb|--5-5-5-5-5-5--|

...you to feel at home.
 
 Eb|---------------|
 Bb|--5-5-5-5-5-5--|
 Gb|--6-6-6-6-6-6--|
 Db|--6-6-6-6-6-6--| 2X
 Ab|--4-4-4-4-4-4--|
 Eb|---------------|

Thats why I'm f[E]ine
I am fine
I am fine
I am fine
I just n[A]eed one hundred dollars
I am fi[E]ne
I am fine
I am fine
I am fine
I just ne[A]ed one hundred dolla[E]rs
From you and y[A]ou and you and you and y[E]ou
[A] [E] 

Important: The song above is NOT stored on the Chordie server. The original song is hosted at www.guitaretab.com. Chordie works as a search engine and provides on-the-fly formatting. Chordie does not index songs against artists'/composers' will. To remove this song please click here.

Text color:
Chord color:
Chord grids: 
Font size:    
Page size: 

A E
Rate #1 of 5 versions

Jango Player

Login - add to songbook

SHARE PAGE  



You need to log in to post comments