Guitar Tabs, Chords and Lyrics
Login is temporarily disabled for some users. Do not panic. Will be back in an hour or two. DO NOT REREGISTER!!


My Friend Marcus  Manchester Orchestra

Tune half a step down
6/8 time
Play bar chords in the choruses and the bridge.
Intro:
Start with just sliding between 3 and 7 on the low E and then kick
into a strumming pattern with these things:
 
 |------0------0----------|
 |------0------0----------|
 |------4------7----------|
 |------0------0----------|
 |------x------x----------|
 |------3------7----------|

Then go back into the sliding pattern using the above chords.
Verse:
[G]My friend [C]Marcus, he sleeps in my [G]basement
[C]His father touched more than [G]spirit
[C]Now he can hardly [G]sleep
(instead of a C here, play the 2nd and 3rd frets on the a string)
Sleep
Repeat intro starting from the strumming pattern
[G]I don't [C]give a good shit if you're [G]lonesome
[C]I think that you should go [G]home, son
[C]Find a father and your [G]mean
(2nd and 3rd frets on the a string)
-ing
Chorus:
[G]Now I can [Bm]see you mean [C]everything to not[G]hing[F#]
[G]Now I beli[Gm]eve you mean [C]eve[D]rything
Bridge:
A C#m x4
Chorus (key change):
[A]Now I can [C#m]see you mean [D]everything to not[A]hing[G#]
[A]Now I beli[C#m]eve you mean [D]eve[E]rything
Verse:
[G]My friend [C]Marcus, he works on a [G]train set
[C]And I still can't move on my [G]broke track
[C]He's helping me find my [G]meaning
[B] [C] [D]  
Chorus:
[G]Now I can [Bm]see you mean [C]everything to not[G]hing[F#]
[G]Now I beli[Gm]eve you mean [C]eve[D]rything
Outro:
(Lightly strum the intro chords)
It's funny how many don't know
How many of us don't have homes
 
 -------------------------------------------------------------------------

CHORDS:
[G] [C]  
 
 |--3--| |--0--|
 |--3--| |--1--|
 |--0--| |--0--|
 |--0--| |--2--|
 |--2--| |--3--|
 |--3--| |-----|

BAR CHORDS:
[G] [Bm] [C] [F#]  
 
 |--3--| |--2--| |--8--| |--2--|
 |--3--| |--3--| |--8--| |--2--|
 |--4--| |--4--| |--9--| |--3--|
 |--5--| |--4--| |--10-| |--4--|
 |--5--| |--2--| |--10-| |--4--|
 |--3--| |--2--| |--8--| |--2--|

[D] [A] [C#m] [G#]  
 
 |--10-| |--5--| |--4--| |--4--|
 |--10-| |--5--| |--5--| |--4--|
 |--11-| |--6--| |--6--| |--5--|
 |--12-| |--7--| |--6--| |--6--|
 |--12-| |--7--| |--4--| |--6--|
 |--10-| |--5--| |--4--| |--4--|

[E]|--12-|
|--12-|
|--13-|
|--14-|
|--14-|
|--12-|

Important: The song above is NOT stored on the Chordie server. The original song is hosted at www.guitaretab.com. Chordie works as a search engine and provides on-the-fly formatting. Chordie does not index songs against artists'/composers' will. To remove this song please click here.

Text color:
Chord color:
Chord grids: 
Font size:    
Page size: 

A B Bm C C#m D E F# G G# Gm
Rate #1 of 2 versions

Login - add to songbook

SHARE PAGE  




You need to log in to post comments