Guitar Tabs, Chords and Lyrics
Login is temporarily disabled for some users. Do not panic. Will be back in an hour or two. DO NOT REREGISTER!!


Colly Strings  Manchester Orchestra

Colly Strings by Manchester Orchestra off of their album I'm like a Virgin Losing
a Child. I'm like 99% this is correct. From watching live videos it looked like
he did harmonics, so I figured out the harmonics.
Enjoy, rate, and comment!
Drop D
() -harmonics
b -bend
Intro
 
 e------------------------------------------------------|
 b------------------------------------------------------|
 g---------11b----------------------7-------------------|
 d-----------------------(12)----------------------(12)-|
 a-----(12)----------(12)---------5------------(12)-----|
 d-(12)----------(12)-----------5------7\--(12)---------|

Verse
 
 e-----------------------------------------------------|
 b-----------------------------------------------------|
 g------------------------------------7----------------| x4
 d---------(12)------------(12)-------------------(12)-|
 a-----(12)------------(12)---------5---------(12)-----|
 d-(12)------------(12)-----------5-------(12)---------|

Chorus
 
 e-------------------------------------------------------|
 b-------------------------------------------------------|
 g-----7------9------11b-------7------9------11b------11-|
 d-------------------------------------------------------|
 a---5------7------9---------5------7------9-------------|
 d-5------7------9---------5------7------9--------9------|
 e--------------------------------------------------------|
 b--------------------------------------------------------|
 g-----7------9------11b------11--------7------9------11b-|
 d--------------------------------------------------------|
 a---5------7------9------------------5------7------9-----|
 d-5------7------9--------9---------5------7------9-------|

Verse 2
 
 e---------------------------------------------------------|
 b---------------------------------------------------------|
 g------------------------------------7----------------11b-| x2
 d---------(12)------------(12)-------------------(12)-----|
 a-----(12)------------(12)---------5---------(12)---------|
 d-(12)------------(12)-----------5-------(12)-------------|
 e-----------------------------------------------------|
 b-----------------------------------------------------|
 g------------------------------------7----------------| x2
 d---------(12)------------(12)-------------------(12)-|
 a-----(12)------------(12)---------5---------(12)-----|
 d-(12)------------(12)-----------5-------(12)---------|

Chorus
 
 e----------------------------------------------------------------|
 b----------------------------------------------------------------|
 g-----7------9------11b------11--------7------9------11b------11-|
 d----------------------------------------------------------------|
 a---5------7------9------------------5------7------9-------------|
 d-5------7------9--------9---------5------7------9---------9-----|
 e--------------------------------------------------|
 b--------------------------------------------------|
 g-----7------9------11b-11-------7------9------11b-|
 d--------------------------------------------------|
 a---5------7------9------------5------7------9-----|
 d-5------7------9------------5------7------9-------|

Quiet Part
 
 e-0----3-|
 b-3----3-|
 g-0----0-|
 d-2----0-|
 a-3----x-|
 d------5-|

Outro
[D] [C] [G]  
 
 e-2--0--3-|
 b-3--3--3-|
 g-2--0--0-| x7
 d-0--2--0-|
 a-0--3--x-|
 d-0-----5-|

alternate that D chord from
e-2- to e-3-
[b-3-]g-2- [b-3-]g-2-
d-0- d-0-
a-0- a-0-
d-0- d-0-
the C chord stays the same.
alternate that G chord from
e-3- to e-5-
[b-3-]g-0- [b-3-]g-0-
d-0- d-0-
a-x- a-x-
[d-5-] [d-5-]  
you just gotta listen for those last chord changes.
That's it. There is a second guitar, but I haven't been able to figure it out,
perhaps some other time.
~Chino

Important: The song above is NOT stored on the Chordie server. The original song is hosted at www.guitaretab.com. Chordie works as a search engine and provides on-the-fly formatting. Chordie does not index songs against artists'/composers' will. To remove this song please click here.

Text color:
Chord color:
Chord grids: 
Font size:    
Page size: 

C D G
Rate #5 of 5 versions

Jango Player

Login - add to songbook

SHARE PAGE  



You need to log in to post comments