Guitar Tabs, Chords and Lyrics
Server problems seems to be fixed. Chordie has been experiencing problems with songs disappearing. These issues now seems to be fixed, but still verifying the fix. If you find anything strange, please email admin@chordie.com.


God Knows  Mando Diao

God Knows - Mando Diao
Note: In the intro, hold the bend on the first 10b and release down on the second bend (10b)
Intro
 
 e|---------------------------------------------------------------------------|
 B|--10-10b-10b----7----------------------------------------------------------|
 G|-------------------7---9999---12-12-12-12-12-12-12-12-12-12----------------|
 D|---------------------------------------------------------------------------|
 A|---------------------------------------------------------------------------|
 E|---------------------------------------------------------------------------|
 e|------------------7-------------------------7--------------------7-------|
 B|----------------------------------------------7-10-----------------------|
 G|--7------7-9-7-9b---9-7------------7-9-7-9b-------------7-9-7-9b---9-7---|
 D|----9-999----------------9-7-9-999----------------9-999----------------9-7
 A|--------------------------------------------------------------------------
 E|--------------------------------------------------------------------------
 e|--------------------------------------------------------------------------
 B|-------------------------------------------------------------------------|
 G|-------7-----------------------------------------------------------------|
 D|-9-999---9-7-------------------------------------------------------------|
 A|-------------9-----------------------------------------------------------|
 E|---------------7---------------------------------------------------------|

Verse 1
[B]Well I turned left just like you told me to,
[D]I get excited by the moves you do.
[E]I'm on a mission and I'm[G] gonna get away.[B]
[B]Well I saw her standing all colored in red.
[D]I felt the blues just by the things she said.
[E]I want my mission so I c[G]an escape today.[B]
Chorus
[D]God knows - I ain't sleeping but[F#] I want my line.
[Bm]God knows - I ain't happy so[G] I want it bad, [D]tonight
Oh [F#]brother can you help me[Bm] out.[Bm]
[D]God knows - I've got nothing so [F#]accept my time.
[Bm]God knows - it ain't easy to [G]behave in this spotli[D]ght.
Oh [F#]brother can you help me[Bm] out... [Bm]
Bro[F#]ther can you help me ou[Bm]t...[Bm]
Oh [F#]brother can you help me[Bm] out... [Bm]
Verse 2
[B]Well I turned the page from number three to four.
[D]You had nothing on you by my bedroom door.
[E]You had your mission now[G] I'm gonna get awa[B]y.
[B]When this is over and our souls are saved.
[D]When I am buried when I've got my own cave.
[E]I've done my mission so [G]I won't be here to[B]day.
Chorus
[D]God knows - I ain't sleeping but[F#] I want my line.
[Bm]God knows - I ain't happy so[G] I want it bad, [D]tonight
Oh [F#]brother can you help me[Bm] out.[Bm]
[D]God knows - I've got nothing so [F#]accept my time.
[Bm]God knows - it ain't easy to [G]behave in this spotli[D]ght.
Oh [F#]brother can you help me[Bm] out... [Bm]
Bro[F#]ther can you help me ou[Bm]t...[Bm]
Oh [F#]brother can you help me[Bm] out... [Bm]
Oh [F#]brother can you help me[Bm] out[Bm]
Solo
 
 e|-------------------------------------------------------------------------|
 B|-----10-7----------------------------------------------------------------|
 G|---7------9-7-9b-7---------------------7--------7-----7-----7-9-9-9b-7---|
 D|-9-----------------9-7-9-9b-7-------7-9---9--7-9---7-9---7-9-----------9-9
 A|------------------------------9-7-9---------------------------------------
 E|-------------------------------------------------------------------------|
 e|------------------------------7------------------------7--------7--------7
 B|---------------------------------------------------------7-10-7---7-1010-|
 G|---------------------7-9-7-9b---9-7-----------7-9-7-9b-------------------|
 D|-9-9-9-9-7---7-9-999----------------9-7-9-999----------------------------|
 A|-----------9-------------------------------------------------------------|
 E|-------------------------------------------------------------------------|
 e|-10-12-12-12b-10-7-------------------------------------------------------|
 B|-------------------------------------------------------------------------|
 G|-------------------------------------------------------------------------|
 D|-------------------------------------------------------------------------|
 A|-------------------------------------------------------------------------|
 E|-------------------------------------------------------------------------| 

Verse 3
[B]I turned right just like I thought you would.
[D]I got excited like you said I would.
[E]I'm on a mission and I'm[G] getting blown a[B]way.
[B]Well I saw her standing all colored in red.
[D]I felt the blues just by the things she said.
[E]I want my mission so I c[G]an escape today.[B]
Chorus
[D]God knows - I ain't sleeping but[F#] I want my line.
[Bm]God knows - I ain't happy so[G] I want it bad, [D]tonight
Oh [F#]brother can you help me[Bm] out.[Bm]
[D]God knows - I've got nothing so [F#]accept my time.
[Bm]God knows - it ain't easy to [G]behave in this spotli[D]ght.
Oh [F#]brother can you help me[Bm] out
oh [E]brother can you help me[G] out
oh [E]brother can you help me[G] out
oh [E]brother can you help me[Bm] out
[B]Yeah ... yeah ...... yeah ... yeah
[D]Yeah ... yeah ...... yeah ... yeah
[E]Yeah ... yeah ...... yea[G]h ... yeah .... [B]Oh right....

Important: The song above is NOT stored on the Chordie server. The original song is hosted at www.guitaretab.com. Chordie works as a search engine and provides on-the-fly formatting. Chordie does not index songs against artists'/composers' will. To remove this song please click here.

Text color:
Chord color:
Chord grids: 
Font size:    
Page size: 

B Bm D E F# G
Rate #3 of 10 versions

Jango Player

Login - add to songbook

SHARE PAGE  



You need to log in to post comments