Guitar Tabs, Chords and Lyrics
Major upgrade!! After one year development the new version of Chordie is now online! Please give feedback.


Enola/Alone   Manic Street Preachers

 
 e -2-2-2-3-3-3-3-3-3-3-3-
 b -3-2-3-3-3-3-3-3-3-3-3-
 g -2-2-4-3-3-3-3-3-3-3-3-
 d -0-0-4-5-5-5-5-5-5-5-5-
 a -0-0-2-5-5-5-5-5-5-5-5-
 e -x-x-x-3-3-3-3-3-3-3-3-

 


 


 Verse 1:


 e -2-2-2-3-


 [b]g [-3-2-3-3-]-2-2-4-3-


 d -0-0-4-5-


 a -0-0-2-5-


 e -x-x-x-3-


 The statue of libery looks to solemn on the TV


 


 e -2-2-2-3-


 [b]g [-3-2-3-3-]-2-2-4-3-


 d -0-0-4-5-


 a -0-0-2-5-


 e -x-x-x-3-


 Hundred percent risk of stepping outside each second too precious to try


 


 e -2-2-2-3-


 [b]g [-3-2-3-3-]-2-2-4-3-


 d -0-0-4-5-


 a -0-0-2-5-


 e -x-x-x-3-


 My heart aches for Enola from my birth a Rellik a killer


 


 e -2-2-2-3-


 [b]g [-3-2-3-3-]-2-2-4-3-


 d -0-0-4-5-


 a -0-0-2-5-


 e -x-x-x-3-


 All I want to do is live no matter how miserable it is


 


 pm:


 

 
 e -------------------------------------
 b -------------------------------------
 g -------------------------------------
 d -5-5-5-5-5-5-5-5-5-5-5-5-5-5-5-5-5-5-
 a -5-5-5-5-5-5-5-5-5-5-5-5-5-5-5-5-5-5-
 e -3-3-3-3-3-3-3-3-3-3-3-3-3-3-3-3-3-3-

 


 OW


 


 Chorus:


 

 
 e -5-5-5-5-5-5-5-5-5-5-0-0-0-0-0-0-0-0-0-0---
 b -5-5-5-5-5-5-5-5-5-5-0-0-0-0-0-0-0-0-0-0---
 g -6-6-6-6-6-6-6-6-6-6-3-3-3-3-3-3-3-3-3-3---
 d -7-7-7-7-7-7-7-7-7-7-4-4-4-4-4-4-4-4-4-4---
 a -7-7-7-7-7-7-7-7-7-7-4-4-4-4-4-4-4-4-4-4-0-
 e -5-5-5-5-5-5-5-5-5-5-2-2-0-2-0-2-0-2-0-2---

 


 Please sing to me a song


 


 

 
 e ---------------------------------------------
 b ---------------------------------------------
 g -4-4-4-4-4-4-4-4-4-4-7-7-7-7-7-7-7-7-7-7-7-7-
 d -4-4-4-4-4-4-4-4-4-4-7-7-7-7-7-7-7-7-7-7-7-7-
 a -2-2-2-2-2-2-0-2-2-2-5-5-5-5-5-5-5-5-5-5-5-5-
 e ---------------------------------------------

 


 Enola Alone


 


 

 
 e -5-5-5-5-5-5-5-5-5-5-0-0-0-0-0-0-0-0-0-0---
 b -5-5-5-5-5-5-5-5-5-5-0-0-0-0-0-0-0-0-0-0---
 g -6-6-6-6-6-6-6-6-6-6-3-3-3-3-3-3-3-3-3-3---
 d -7-7-7-7-7-7-7-7-7-7-4-4-4-4-4-4-4-4-4-4---
 a -7-7-7-7-7-7-7-7-7-7-4-4-4-4-4-4-4-4-4-4-0-
 e -5-5-5-5-5-5-5-5-5-5-2-2-0-2-0-2-0-2-0-2---

 


 Please take me on home


 


 

 
 e ---------------------2-2-0-2-3-2-0-2-2-2-2-2-
 b ---------------------3-3-3-3-3-3-3-3-3-3-3-3-
 g -4-4-4-4-4-4-4-4-4-4-2-2-2-2-2-2-2-2-2-2-2-2-
 d -4-4-4-4-4-4-4-4-4-4-0-0-0-0-0-0-0-0-0-0-0-0-
 a -2-2-2-2-2-2-0-2-2-2-0-0-0-0-0-0-0-0-0-0-0-0-
 e ---------------------x-x-x-x-x-x-x-x-x-x-x-x-

 


 Enola Alone


 


 e -2-


 [b]g [-3-]-2-


 d -0-


 a -0-


 e -x-


 ho_______


 


 Break:


 e -2-2-2-3-


 [b]g [-3-2-3-3-]-2-2-4-3-


 d -0-0-4-5-


 a -0-0-2-5-


 e -x-x-x-3-


 


 Verse 2:


 e -2-2-2-3-


 [b]g [-3-2-3-3-]-2-2-4-3-


 d -0-0-4-5-


 a -0-0-2-5-


 e -x-x-x-3-


 I walk in the grass and I feel some peace at last


 


 e -2-2-2-3-


 [b]g [-3-2-3-3-]-2-2-4-3-


 d -0-0-4-5-


 a -0-0-2-5-


 e -x-x-x-3-


 I walk on the beach and for once I feel some ease


 


 e -2-2-2-3-


 [b]g [-3-2-3-3-]-2-2-4-3-


 d -0-0-4-5-


 a -0-0-2-5-


 e -x-x-x-3-


 I'll take a picture of you To remember how good you looked


 


 e -2-2-2-3-


 [b]g [-3-2-3-3-]-2-2-4-3-


 d -0-0-4-5-


 a -0-0-2-5-


 e -x-x-x-3-


 Like memory it has disappeared Naked and lonely with my fears


 


 pm:


 

 
 e -------------------------------------
 b -------------------------------------
 g -------------------------------------
 d -5-5-5-5-5-5-5-5-5-5-5-5-5-5-5-5-5-5-
 a -5-5-5-5-5-5-5-5-5-5-5-5-5-5-5-5-5-5-
 e -3-3-3-3-3-3-3-3-3-3-3-3-3-3-3-3-3-3-

 


 OW


 


 Chorus:


 

 
 e -5-5-5-5-5-5-5-5-5-5-0-0-0-0-0-0-0-0-0-0---
 b -5-5-5-5-5-5-5-5-5-5-0-0-0-0-0-0-0-0-0-0---
 g -6-6-6-6-6-6-6-6-6-6-3-3-3-3-3-3-3-3-3-3---
 d -7-7-7-7-7-7-7-7-7-7-4-4-4-4-4-4-4-4-4-4---
 a -7-7-7-7-7-7-7-7-7-7-4-4-4-4-4-4-4-4-4-4-0-
 e -5-5-5-5-5-5-5-5-5-5-2-2-0-2-0-2-0-2-0-2---

 


 Please sing to me a song


 


 

 
 e ---------------------------------------------
 b ---------------------------------------------
 g -4-4-4-4-4-4-4-4-4-4-7-7-7-7-7-7-7-7-7-7-7-7-
 d -4-4-4-4-4-4-4-4-4-4-7-7-7-7-7-7-7-7-7-7-7-7-
 a -2-2-2-2-2-2-0-2-2-2-5-5-5-5-5-5-5-5-5-5-5-5-
 e ---------------------------------------------

 


 Enola Alone


 


 

 
 e -5-5-5-5-5-5-5-5-5-5-0-0-0-0-0-0-0-0-0-0---
 b -5-5-5-5-5-5-5-5-5-5-0-0-0-0-0-0-0-0-0-0---
 g -6-6-6-6-6-6-6-6-6-6-3-3-3-3-3-3-3-3-3-3---
 d -7-7-7-7-7-7-7-7-7-7-4-4-4-4-4-4-4-4-4-4---
 a -7-7-7-7-7-7-7-7-7-7-4-4-4-4-4-4-4-4-4-4-0-
 e -5-5-5-5-5-5-5-5-5-5-2-2-0-2-0-2-0-2-0-2---

 


 Please take me on home


 


 

 
 e ---------------------2-2-0-2-3-2-0-2-2-2-2-2-
 b ---------------------3-3-3-3-3-3-3-3-3-3-3-3-
 g -4-4-4-4-4-4-4-4-4-4-2-2-2-2-2-2-2-2-2-2-2-2-
 d -4-4-4-4-4-4-4-4-4-4-0-0-0-0-0-0-0-0-0-0-0-0-
 a -2-2-2-2-2-2-0-2-2-2-0-0-0-0-0-0-0-0-0-0-0-0-
 e ---------------------x-x-x-x-x-x-x-x-x-x-x-x-

 


 Enola Alone


 


 e -2-


 [b]g [-3-]-2-


 d -0-


 a -0-


 e -x-


 ho_______


 


 Solo:


 

 
 e -----------------------------
 b -----------------0-----------
 g ---2-1h2-1---------2-1-----0-
 d -----------2-----------2-----
 a -------------2-2---------2---
 e -0---------------------------
 e -------------------------------------
 b -------------------------------------
 g -2h4-4-4h7-7-7-7h9-9-9-7-7-7-7-4-2-0-
 d -------------------------------------
 a -------------------------------------
 e -------------------------------------
 e ---------------------------------
 b ---------------------------------
 g ---2-1h2-1-------------2-1-----0-
 d -----------2---------0-----2-2---
 a -------------2-2-0h2-------------
 e -0-------------------------------
 e -----------------------------------
 b -----------------------------------
 g -2-4-4-4-7-7-7-7-4-4-4-2-0-2b4r2-0-
 d -----------------------------------
 a -----------------------------------
 e -----------------------------------

 


 


 Chorus:


 


 

 
 e -0-0-0-0-0-0-0-0-0-0-0-0-0-0-0-0---
 b -3-2-3-2-0-0-0-0-0-0-0-0-0-0-0-0---
 g -2-2-2-2-3-3-3-3-3-3-3-3-3-3-3-3---
 d -2-2-2-2-4-4-4-4-4-4-4-4-4-4-4-4---
 a -0-0-0-0-4-4-4-4-4-4-4-4-4-4-4-4-0-
 e -0-0-0-0-2-2-2-0-2-2-2-2-2-0-2-2---

 


 Please Please sing to me a song


 


 

 
 e ---------------------------------------------
 b ---------------------------------------------
 g -4-4-4-4-4-4-4-4-4-4-7-7-7-7-7-7-7-7-7-7-7-7-
 d -4-4-4-4-4-4-4-4-4-4-7-7-7-7-7-7-7-7-7-7-7-7-
 a -2-2-2-2-2-2-0-2-2-2-5-5-5-5-5-5-5-5-5-5-5-5-
 e ---------------------------------------------

 


 Enola Alone


 


 

 
 e -5-5-5-5-5-5-5-5-5-5-0-0-0-0-0-0-0-0-0-0---
 b -5-5-5-5-5-5-5-5-5-5-0-0-0-0-0-0-0-0-0-0---
 g -6-6-6-6-6-6-6-6-6-6-3-3-3-3-3-3-3-3-3-3---
 d -7-7-7-7-7-7-7-7-7-7-4-4-4-4-4-4-4-4-4-4---
 a -7-7-7-7-7-7-7-7-7-7-4-4-4-4-4-4-4-4-4-4-0-
 e -5-5-5-5-5-5-5-5-5-5-2-2-0-2-0-2-0-2-0-2---

 


 Please take me on home


 


 

 
 e ---------------------2-2-0-2-3-2-0-2-2-2-2-2-
 b ---------------------3-3-3-3-3-3-3-3-3-3-3-3-
 g -4-4-4-4-4-4-4-4-4-4-2-2-2-2-2-2-2-2-2-2-2-2-
 d -4-4-4-4-4-4-4-4-4-4-0-0-0-0-0-0-0-0-0-0-0-0-
 a -2-2-2-2-2-2-0-2-2-2-0-0-0-0-0-0-0-0-0-0-0-0-
 e ---------------------x-x-x-x-x-x-x-x-x-x-x-x-

 


 Enola Alone


 


 e -2-0-


 [b]g [-3-1-]-2-0-


 d -0-2-


 a -0-3-


 e -x-x-


 ho_______


 


 e -2-2-


 [b]g [-3-3-]-2-2-


 d -0-0-


 a -0-0-


 e -x-x-


 


 Ending:


 

 
 e -0-0-------------3-3-3-2-
 b -3-3-------------3-3-3-3-
 g -2-2---0-0---0-0-2-2-2-2-
 d -0-0---0-0---0-0-0-0-0-0-
 a -------0-0---------------
 e -----0-2-2-0-3-3---------
 e -0-0-------------3-3-3-2-
 b -3-3-------------3-3-3-3-
 g -2-2---0-0---0-0-2-2-2-2-
 d -0-0---0-0---0-0-0-0-0-0-
 a -------0-0---------------
 e -----0-2-2-0-3-3---------


Important: The song above is NOT stored on the Chordie server. The original song is hosted at www.guitaretab.com. Chordie works as a search engine and provides on-the-fly formatting. Chordie does not index songs against artists'/composers' will. To remove this song please click here.

This song is displayed as text-only. Transposing and tuning is only available for chordpro-songs.
Rate #4 of 5 versions

Jango Player

Login - add to songbook

SHARE PAGE  




You need to log in to post comments