Guitar Tabs, Chords and Lyrics
Major upgrade!! After one year development the new version of Chordie is now online! Please give feedback.


Life Becoming a Landslide  Manic Street Preachers

Song: Life Becoming a Landslide
Artist: Manics
Album: Gold Against the Soul
I may have got the timings a bit wrong but all the notes are right and work perfectly
me.
Verse:
Acoustic Riff at beginning (I put the note played on the B-string in brackets because it
also be played instead):
 
 e-----------------------------------------------|
 B--------(6)------------------------------------|
 G-----------------------------------------------|
 D-----------------------------------------------|
 A-3h5-3-5-8-7-7-7h8-7-5-3-1-0-1-0---------------|
 D---------------------------------3-3-3h5-3-0---| X4

Childbirth tears upon her muscles
Very first, second a screaming icon
Babies in time barely even recognise
Words that once stroked now bruising tired lips
Pre-Chorus:
My [D5]idea of love comes [G5]from
A childhood [C5]glimpse of pornogr[F5]aphy
Though there [D5]is no true [G5]love
Just a [Bb5]finely tuned jealou[C5]sy
Chorus (ok I don't think these chords are completely accurate, but a good basis)
[C5]Life becoming a landsli[G5]de[F5]
Ice [Bb5]freezing, nature [C5]dead
[C5]Life becoming a landsli[G5]de[F5]
I don't [Bb5]wanna be a m[C5]an
Verse:
(Distorted Guitar, Palm Muted) U can work out the exact number of times you play each
I just put a rough guidance)
 
 e--------------------------------------------------------------|
 B--------------------------------------------------------------|
 G--------------------------------------------------------------|
 D---------------------------------------------/3---------------|
 A-5-5555-3-5-/8--3-33333-3h5-3-1-0-1-1111-0-1---------------5--|
 D-----------------------------------------------3-3333-3/5-0---|

I usually play the last note like this for more effect:
e--
[B---]  
[G---]  
[D---]  
[A---]  
[E-/12]  
Everyday more numb to agony
This the howl, this the sigh of the lonely
One day I realise oil on canvas
Can never paint a petal oh so delicate
Then this:
gtr1:
 
 e---------------------------------------------------------------|
 B---------------------------------------------------------------|
 G-7-5-7-10-9-9-9/10-9-7-5-3-2-3-2-----------7-------------------|
 D-7-5-7-10-9-9-9/10-9-7-5-3-2-3-2-3-3-3/5-0-7-------------------|
 A-5-3-5-8--7-7-7/8--7-5-3-1-0-1-0-3-3-3/5-0-5-------------------|
 D---------------------------------3-3-3/5-0---------------------| X2

gtr2:
 
 E-------------------------------------------------------------|
 B----------13-----------------------------15-13---------------|
 G-14-12-14----12-12-12h14-12----------------------------------|
 D----------------------------15-14-12-9-12-----14-14h15-14-12-|
 A-------------------------------------------------------------|
 D-------------------------------------------------------------|

Pre-Chorus
Chorus
Bridge:
 
 e--------------------------|
 B--------------------------|
 G-5-/7--5-/7--5-/7-10-3-2--|
 D-5-/7--5-/7--5-/7-10-3-2--|
 A-3-/5--3-/5--3-/5-8--1-0--|
 D--------------------------|

Pre-Chorus
Chorus
End on C5
Please e-mail me or add my msn: totallyph@hotmail.com if you have any changes or
about anyhting. (Or if ya want a chat)

Important: The song above is NOT stored on the Chordie server. The original song is hosted at www.guitaretab.com. Chordie works as a search engine and provides on-the-fly formatting. Chordie does not index songs against artists'/composers' will. To remove this song please click here.

Text color:
Chord color:
Chord grids: 
Font size:    
Page size: 

Bb5 C5 D5 F5 G5
Rate #2 of 4 versions

Login - add to songbook

SHARE PAGE  




You need to log in to post comments