Guitar Tabs, Chords and Lyrics
Server problems seems to be fixed. Chordie has been experiencing problems with songs disappearing. These issues now seems to be fixed, but still verifying the fix. If you find anything strange, please email admin@chordie.com.


William's Last Words  Manic Street Preachers

Manic Street Preachers - William's Last Words
Journal for Plague Lovers (2009)
tabbed by Galapogos90
pretty simple song. other than the fills in the pre-chorus, things are pretty bare bones.
Verse
[A7] Isn't it lov[C]ely when the daw[G]n brings the [Em]dew, i'll be watching over you
etc.
Pre-chorus:
[G]goodnight my [C]sweetheart...
Chorus -
Goodnight sleep tight, goodnight God bless
 
 E |------------------------|
 B |------------------------|
 G |------------------------|
 D |-5-5-5-5-5--3--5--7-----|
 A |-5-5-5-5-5--3--5--7-----|
 E |-3-3-3-3-3--1--3--5-----|

let the last power chord ring, repeat etc. does it need explaining?
Pre-chorus/outro fills:
After the C chord James plays variations on these fills
 
 E |------------------------|
 B |------------------------|
 G |------------------------|
 D |-0-2-3-2---0------------|
 A |---------3---3-2--------|
 E |------------------------|

trickier ones heard in the outro:
 
 E |------------------------|
 B |------------------------|
 G |------------------------|

D |5h7p5/4h5-5h7p5/4h5-5---|
 
 A |------------------------|
 E |------------------------|
 E |------------------------|
 B |------------------------|
 G |------------------------|
 D |5h7p5/4h5-5p0-----------|
 A |--------------3---------|
 E |----------------3-------|

Also in the outro you can hear some strumming on these G & C chords
 
 E |---------8--------------|
 B |-12------8--------------|
 G |-12------9--------------|
 D |-12---------------------|
 A |------------------------|
 E |------------------------|

there's a few minor things in the verses i left out which can be done playing the chords up
higher on the fretboard so whatever, enjoy.

Important: The song above is NOT stored on the Chordie server. The original song is hosted at www.guitaretab.com. Chordie works as a search engine and provides on-the-fly formatting. Chordie does not index songs against artists'/composers' will. To remove this song please click here.

Text color:
Chord color:
Chord grids: 
Font size:    
Page size: 

A7 C Em G
Rate #1 of 3 versions

Login - add to songbook

SHARE PAGE  




You need to log in to post comments