Guitar Tabs, Chords and Lyrics
Server problems seems to be fixed. Chordie has been experiencing problems with songs disappearing. These issues now seems to be fixed, but still verifying the fix. If you find anything strange, please email admin@chordie.com.


Marlon J.D.  Manic Street Preachers

Tabbed by manOutOfTime, Neil_willey@hotmail.com
Bm (whammy)
D (whammy)
He stood like a statue
As he was beaten across the f[Bm]ace
With a horse whip
 
 -5-2-0-----------------------------------------------------------------------|
 -------3-2-0-----------------------------------------------------------------|
 -------------3-4v------------------------------------------------------------|
 -----------------------------------------------------------------------------|
 -----------------------------------------------------------------------------|
 -----------------------------------------------------------------------------|

Where the wounds already ex[D]ist
A well-oiled rifle
And never lonely, Marlon J[Bm]D
If you want to count down, countdown
 
 -5-2-0------------------------------------------------------------------------|
 -------3-2-0------------------------------------------------------------------|
 -------------3-4v-------------------------------------------------------------|
 ------------------------------------------------------------------------------|
 ------------------------------------------------------------------------------|
 ------------------------------------------------------------------------------|

Give him some dignity
[D5] [B5] [A5] [E5] [B5]  
[D]So [Bm]see, s[A]o s[E]ee [Bm]Marlon J.D.
[D]So [Bm]see, s[A]o s[E]ee [Bm]Marlon J.D.
[D]Learn to live without clutter
 
 g--7-------b-/19---b--

let ring
To live without [Bm]luxury
Sometimes I envy them
 
 -5-2-0------------------------------------------------------------------------|
 -------3-2-0------------------------------------------------------------------|
 -------------3-4v-------------------------------------------------------------|
 ------------------------------------------------------------------------------|
 ------------------------------------------------------------------------------|
 ------------------------------------------------------------------------------|

Goodnight yourself, Marlon [D]JD
He did not defend himself
He didn't even raise his [Bm]hand
I will not beg because
This is how I am
[D5] [B5] [A5] [E5] [B5]  
[D]So [Bm]see, s[A]o s[E]ee [Bm]Marlon J.D.
[D]So [Bm]see, s[A]o s[E]ee [Bm]Marlon J.D.
[D]So [Bm]see, s[A]o s[E]ee [Bm]Marlon J.D.
Solo:
 
 ---7-----10^----||-----------------------------------------------------------|
 -----8------8---||-13/15\13\10-------------------15b-15b-15br----------------|
 -7-----7------7-||-13/15\13\11---------------15------------------------------|
 ----------------||-------------x3---13-15-16---------------------------------|
 ----------------||-----------------------------------------------------------|
 ----------------||-----------------------------------------------------------|

"Bare floors, plain white walls.
No window curtains, nothing but essentials.
With no luxuries, no ornamentation,
Utter simplicity.
But it's also clean,
It's clean as a rifle."
[D]So [Bm]see, s[A]o s[E]ee [Bm]Marlon J.D.
[D]So [Bm]see, s[A]o s[E]ee [Bm]Marlon J.D.
[D]So [Bm]see, s[A]o s[E]ee [Bm]Marlon J.D.
[D]So [Bm]see, s[A]o s[E]ee [Bm]Marlon J.D.
 
 -----------------------------------9---9---9--|-97---------------------------|
 -----------------------------8-8b----8---8----|----97--x8--------------------|
 ----------------------------------------------|------------------------------|
 -\9-9/10\9-7----------------------------------|------------------------------|
 -------------10v-7/9\7-5-4--------------------|------------------------------|
 ----------------------------------------------|------------------------------|
 -----20-----20-----20-----20-----20-20-20\-----------------------------------|
 -16b----16b----16b----16b----16b---------------------------------------------|
 -----------------------------------------------------------------------------|
 -----------------------------------------------------------------------------|
 -----------------------------------------------------------------------------|
 -----------------------------------------------------------------------------|

"And, and they're never lonely
And sometimes I envy them"

Important: The song above is NOT stored on the Chordie server. The original song is hosted at www.guitaretab.com. Chordie works as a search engine and provides on-the-fly formatting. Chordie does not index songs against artists'/composers' will. To remove this song please click here.

Text color:
Chord color:
Chord grids: 
Font size:    
Page size: 

A A5 B5 Bm D D5 E E5
Rate #1 of 2 versions

Jango Player

Login - add to songbook

SHARE PAGE  



You need to log in to post comments