Guitar Tabs, Chords and Lyrics
Server problems seems to be fixed. Chordie has been experiencing problems with songs disappearing. These issues now seems to be fixed, but still verifying the fix. If you find anything strange, please email admin@chordie.com.


1985  Manic Street Preachers

 
 -------------------------------------------------------------------------------

1985 - Manic Street Preachers
 
 -------------------------------------------------------------------------------

Tabbed by:the sunray
Tuning:Standard
************************************
| / slide up
| \ slide down
| b Bend
************************************
Intro
[A] [C#m]  
[A] [C#m]  
[E] [A5]  
[E] [A5]  
[A]In 198[C#m]5, I [A]placed a bet and [C#m]lied,
losing all [E]that I had[A5],
at least with [E]all my heart in[A5]tact.
[A]In 198[C#m]5, Or[A]well was proved r[C#m]ight,
Torville and [E]Dean's bolero[A5],
redundant as a [E]sad welsh chapel[A5].
In 198[F#m]5, in 19[A]85.
F#m...... A...........E.........B
[F#m]So God is [A]dead, like N[E]ietzsche s[B]aid,
[F#m]superstiti[A]on is all we[E] have left[B].
[F#m]Circle the w[A]agons, we're [E]under att[B]ack,
we[A]'ve realised there's [A]no going back,
we[A]'ve realised there's [A]no going back.
[A] [C#m] [A] [C#m]  
 
 e|0-5-4-0-5-4-0-5--0-7---9-7--------5-4-0-5-4-0-5--7---9-9-7---7-------------|
 B|---------------------9-----9-7---------------------9-------9---------------|
 G|---------------------------------------------------------------------------|
 D|---------------------------------------------------------------------------|
 A|---------------------------------------------------------------------------|
 E|---------------------------------------------------------------------------|

[E] [A5] [E] [A5]  
 
 e|---------------------------------------------------------------------------|
 B|5-4---------4-4-4b--------5-4---------4/5/7/9------------------------------|
 G|----6-4-----------6-4-6-------6-4------------------------------------------|
 D|--------6-4-----------------------6-4--------------------------------------|
 A|---------------------------------------------------------------------------|
 E|---------------------------------------------------------------------------|

[A]In 19[C#m]85, the C[A]ivil War failed [C#m]why?,
kept hidden like sc[E]ars of birth,[A5]
nature unable to so[E]ften the words[A5].
[A]In 19[C#m]85, my w[A]ords they came al[C#m]ive,
friends were m[E]ade for life,[A5]
Morrissey a[E]nd Marr gave me c[A5]hoice.
In 198[F#m]5, in 19[A]85.
F#m...... A...........E.........B
[F#m]So God is [A]dead, like N[E]ietzsche s[B]aid,
[F#m]only 1[A]6 years of a[E]ge, he s[B]aid.
[F#m]See a[A]ll the tears, f[E]or the walking d[B]ead,
[A]we've realised there'[A]s no going back,
[A]we've realised there'[A]s no going back.
[A] [C#m] [A] [C#m]  
 
 e|-----5-4-----4---------5-4-------4-----------------------------------------|
 B|---------5-7--7-5-2--------7-5-7--7-5--------------------------------------|
 G|2-------------------2------------------------------------------------------|
 D|---------------------------------------------------------------------------|
 A|---------------------------------------------------------------------------|
 E|---------------------------------------------------------------------------|

[E] [A5] [E] [A5]  
 
 e|5-4-----------------------5-4----------------------------------------------|
 B|----7-5-----------------------7-5------------------------------------------|
 G|--------8-6-8-8-8-4-8-8-8---------8-6-8-8-8-4-8-8-8------------------------|
 D|---------------------------------------------------------------------------|
 A|---------------------------------------------------------------------------|
 E|---------------------------------------------------------------------------|

[A] [C#m] [A] [C#m]  
 
 e|5-4---5-4---5-4--7---9-7----5-4---5-4---5-4--7---9-7---7-------------------|
 B|----5-----5--------9----9-------5-----5--------9-----9---------------------|
 G|---------------------------------------------------------------------------|
 D|---------------------------------------------------------------------------|
 A|---------------------------------------------------------------------------|
 E|---------------------------------------------------------------------------|

[E] [A5] [E] [A5]  
 
 e|---------------------------------------------------------------------------|
 B|5-4---------4b------------5-4---------4------------------------------------|
 G|----6-4-----------------------6-4------------------------------------------|
 D|--------6-4-----------------------6-4--------------------------------------|
 A|---------------------------------------------------------------------------|
 E|---------------------------------------------------------------------------|

[A]In 198[C#m]5, I pl[A]aced a bet and l[C#m]ied,
losing all th[E]at I had.[A5]
E.........A5..........
E.........A5..........
Fade..................

Important: The song above is NOT stored on the Chordie server. The original song is hosted at www.guitaretab.com. Chordie works as a search engine and provides on-the-fly formatting. Chordie does not index songs against artists'/composers' will. To remove this song please click here.

Text color:
Chord color:
Chord grids: 
Font size:    
Page size: 

A A5 B C#m E F#m
Rate #1 of 4 versions

Jango Player

Login - add to songbook

SHARE PAGE  



You need to log in to post comments