Guitar Tabs, Chords and Lyrics
Major upgrade!! After one year development the new version of Chordie is now online! Please give feedback.


Australia  Manic Street Preachers

AUSTRALIA
As recorded by Manic Street Preachers
(From the 1996 Album EVERYTHING MUST GO)
Words by Nicky Wire
Music by James Dean Bradfield & Sean Moore
0 2 2[E] 1 0 0 0 2[Esus4] 2 2 0 0 [Bmaj7sus4/E]0 2 2 3 0 0 x 0 2[A] 2 2 0
x 2 4[B] 4 4 x 5 7 [A5]7 x x x x 4 [C#m]6 6 5 x x 3 5[C] 5 5 x
D E(type 2) AV BVII
x 5 7 7 7 x 0 2 2 1 x x 5 7 7 6 x x 7 9 9 8 x x
Gtr I (E A D G B E) - 'Gtr.1'
Gtr II (E A D G B E) - 'Gtr.2'
Gtr III (E A D G B E) - 'Gtr.3'
Gtr IV (E A D G B E) - 'Gtr.4'
Gtr V (E A D G B E) - 'Pick scrapes'
Intro 1
Q=142
[E] [Esus4] 
[4/4] Gtr III
W W W
| |
[/] [/] 
Gtrs I, II
H. E S S H. +E S S H. +E S S
 
 |---------------||--0-------(0)-----|-0-------(0)-----|
 |---------------||o-0-------(0)-----|-0-------(0)-----|
 |-----------1-1-||--1-------(1)-2-2-|-2-------(2)-3-3-|
 |-----------2-2-||--2-------(2)-2-2-|-2-------(2)-2-2-|
 |-----------2-2-||o-2-------(2)-2-2-|-2-------(2)-2-2-|
 |-----------0-0-||--0-------(0)-0-0-|-0-------(0)-0-0-|

[Bmaj7sus4/E]W [C]W
|
[/]  
H. +E S S Q E S S E E E S S
 
 |-0-------(0)-----|----------------------||
 |-0-------(0)-----|---------------------o||
 |-3-------(3)-5-5-|-5--5-5-5-5-4-2-------||
 |-2-------(2)-----|----------------------||
 |-2-------(2)-3-3-|-3--3-3-3-3-2-0-2-2--o||
 |-0-------(0)-----|----------------0-0---||

Intro 2
[E]Gtr III
W +W
| |
[/] [/]  
Gtr I
Q E. S E E E E +E E E E +E E E S S
 
 |------0------------------0-|--(0)--------0-(0)-----------|
 |------0------0-----------0-|--(0)--0-----0-(0)-----------|
 |--1---1------1--1--1--1--1-|--(1)--1--1--1-(1)-1-1--1--1-|
 |--2---2------2--2--2--2--2-|--(2)--2--2--2-(2)-2-2--2--2-|
 |--2---2------2--2--2--2--2-|--(2)-----2--------2-2--2--2-|
 |--0---0---------0--0--0--0-|--(0)-----0--------0-0--0--0-|

|
| Gtrs II, IV
| Q E S S E E E E +E E E E E E E S S
 
 |---------------------------|-----------------------------|
 |---------------------------|-----------------------------|
 |-13--13--13-13-13-14-16-14-|-(14)-13-13-11-11--9-9S13-13-|
 |---------------------------|-----------------------------|
 |-11--11--11-11-11-12-14-12-|-(12)-11-11--9--9--7-7S11-11-|
 |---------------------------|-----------------------------|

W W
Q E. S E E E E +E E E E E E E E
 
 |------0------------------0-|--(0)-------------0-0-0----|
 |------0------0-----------0-|--(0)--0----------0-0-0----|
 |--1---1------1--1--1--1--1-|--(1)--1--1--1--1-1-1-0----|
 |--2---2------2--2--2--2--2-|--(2)--2--2--2--2-2-2-0----|
 |--2---2------2--2--2--2--2-|--(2)-----2--2--2----------|
 |--0---0---------0--0--0--0-|--(0)-----0--0--0----------|

|
| Q E S S E E E E +E E E E E E E S S
 
 |---------------------------|---------------------------|
 |---------------------------|---------------------------|
 |-13--13--13-13-13-14-16-14-|-(14)-13-13-11-11-9-9-0-0--|
 |---------------------------|----------------------0-0--|
 |-11--11--11-11-11-12-14-12-|-(12)-11-11--9--9-7-7-0-0--|
 |---------------------------|---------------------------|

[A] W +W
| |
[/] [/]  
Q E. S E Q E +E E E E E E E E
 
 |----------------------9-|-(9)-----------------------|
 |-10--10----10-10-10-----|-----10-10-10-10-10--10-10-|
 |--9---9-----9--9--9-----|------9--9--9--9--9---9--9-|
 |-11--11----11-11-11-----|-----11-11-11-11-11--11-11-|
 |-12--12----12-12-12-----|-----12-12-12-12-12--12-12-|
 |------------------------|---------------------------|

|
| Gtr II
| Q E. S E E E E +E E E E E E E E
 
 |------------------------|---------------------------|
 |------------------------|---------------------------|
 |--6---6-----6--6--4-4-6-|-(6)--6--6S14-14-13--13-11-|
 |------------------------|---------------------------|
 |--4---4-----4--4--2-2-4-|-(4)--4--4S12-12-11--11--9-|
 |------------------------|---------------------------|

|
| Gtr IV
| Q E E E E Q +E E E E E Q.
 
 |------0-----------------|------0--------------------|
 |---------0--------------|---------0-----------------|
 |---------------6--------|------------6--------------|
 |--7---------------7-7---|-(7)-----------7--7--------|
 |--7-----------------7---|-(7)--------------7--------|
 |--5-----------------5---|-(5)--------------5--------|

[B] W W
Q E. S E E E E +E E E E E E E E
 
 |-----------------------|-------------------------|
 |-----------------------|-------------------------|
 |--8---8-----8-8-8-8--8-|--(8)--8-8-8-8--8---8----|
 |--9---9-----9-9-9-9--9-|--(9)--9-9-9-9--9---9----|
 |--9---9-----9-9-9-9--9-|--(9)--9-9-9-9--9---9----|
 |--7---7-----7-7-7-7--7-|--(7)--7-7-7-7--7---7-0--|

|
| Q E. S E Q E +E E E E E E E E
 
 |-----------------------|-------------------------|
 |-----------------------|-------------------------|
 |-11--11----11-8-9---11-|-(11)-11-8-8-9-11--11-9--|
 |-----------------------|-------------------------|
 |--9---9-----9-6-7----9-|--(9)--9-6-6-7--9---9-7--|
 |-----------------------|-------------------------|

|
| Q E E E E Q +E E E E E Q.
 
 |------0----------------|-------0-----------------|
 |---------0-------------|---------0---------------|
 |--------------8--------|-----------8-------------|
 |--9-------------9-9----|--(9)--------9--9--------|
 |--9---------------9----|--(9)-----------9--------|
 |--7---------------7----|--(7)-----------7--------|

[A5]Gtrs I, III
E Q E Q E E +E E Q Q Q
| | | | | | | | | | |
[/] [/] [/] [/] [/] [/] [/] [/] [/] [/] [/]  
Gtr II
E Q E Q E E +E E Q Q Q
 
 |---------------|------------------||
 |---------------|------------------||
 |-9-9--9-9--9-9-|-(9)-9-9--9---9---||
 |---------------|------------------||
 |-7-7--7-7--7-7-|-(7)-7-7--7---7---||
 |---------------|------------------||

|
| Gtr IV
| W H. Q
 
 |---------------|------------------||
 |---------------|-------------10S==||
 |---------------|------------------||
 |---------------|--------------7S==||
 |---------------|------------------||
 |---------------|------------------||

Verse
[C#m]Gtr I
Q E. S E E E E +E E E. S E E E E
 
 |-------------------|--------------------------|
 |--5---5--5-4-5-x-5-|--(5)-5-5--5---5---5--5-5-|
 |--6---6--6-4-6-x-6-|--(6)-6-6--6---6---6--6-6-|
 |--6---6--6-4-6-x-6-|--(6)-6-6--6---6---6--6-6-|
 |--4---4--4-4-4-x-4-|--(4)-4-4--4---4---0--4-0-|
 |-------------------|--------------------------|

|
| Gtr IV
| Q H. +H +E E Q
 
 |-------------------|--------------------------|
 |-14----------------|--------------------------|
 |-------------------|--------------------------|
 |-11--11------------|-(11)--------(11)-11s14---|
 |-------------------|--------------------------|
 |-------------------|--------------------------|

[C] Q E. S E E E E +E E E E e [D] E E E
 
 |------------------|-----------------------------|
 |--5--5--5-5-5-5-5-|--(5)-5-5-5---x-----/7--7----|
 |--5--5--5-5-5-5-5-|--(5)-5-5-5---x-----/7--7----|
 |--5--5--5-5-5-5-5-|--(5)-5-5-5---x-----/7--7--0-|
 |--3--3--3-3-3-3-3-|--(3)-3-3-3--(0)----/5--5--0-|
 |------------------|-----------------------------|

|
| W +H +E a E E E
 
 |------------------|-----------------------------|
 |------------------|-----------------------------|
 |------------------|-----------------------------|
 |-10---------------|-(10)-------(10)-10s12-12-12-|
 |------------------|-----------------------------|
 |------------------|-----------------------------|

[C#m] Q E. S E E E E +E E E S S E E e E
 
 |------------------|---------------------------|
 |--5--5--x-4-5-----|------5-5-x-5---5---5--5---|
 |--6--6--x-4-6-4-6-|--(6)-6-6-x-6---6---6--6---|
 |--6--6--x-4-6-4-6-|--(6)-6-6-x-6---6---6--6---|
 |--4--4--x-4-4-4-4-|--(4)-4-4-x-4---4---4--4-0-|
 |------------------|---------------------------|

|
| W +H +E E Q
 
 |------------------|---------------------------|
 |------------------|---------------------------|
 |------------------|---------------------------|
 |-11---------------|-(11)---------(11)-11s14---|
 |------------------|---------------------------|
 |------------------|---------------------------|

[C] Q E. S E E E E +E E E E e [D] E E E
 
 |------------------|----------------------------|
 |--5--5--5-5-5-5-5-|--(5)-5-5----5----x--/7-7---|
 |--5--5--5-5-5-5-5-|--(5)-5-5----5----x--/7-7---|
 |--5--5--5-5-5-5-5-|--(5)-5-5----5----x--/7-7-0-|
 |--3--3--3-0-3-0-3-|--(3)-3-3----3---(0)-/5-5-0-|
 |------------------|----------------------------|

|
| Gtrs II, IV
| W +Q S S S S +E E E E
 
 |------------------|----------------------------|
 |------------------|----------------------------|
 |------------------|----------------------------|
 |-10---------------|-(10)---9h10p9p7-(7)--9-9-7-|
 |------------------|----------------------------|
 |------------------|----------------------------|

[B]Gtrs I, III
Q E. S E E E E +E E E. S E E E E
 
 |-----------------|----------------------|
 |-4--4--4-4-4-4-4-|-(4)-4-4----4-4-4-4---|
 |-4--4--4-4-4-4-4-|-(4)-4-4----4-4-4-4-0-|
 |-4--4--4-4-4-4-4-|-(4)-4-4----4-4-4-4-0-|
 |-2--2--2-0-2-0-2-|-(2)-2-2----2-0-2-2-0-|
 |-----------------|----------------------|

|
| Gtrs II, IV
| ~~~~~~ ~~~~~~~~
| Q E. S E E E E +E E E E E E E E
 
 |-----------------|----------------------|
 |-----------------|----------------------|
 |-----------------|----------------------|
 |-9--9--9-7-9-7-9-|-(9)-9-9--9---7-9-9-7-|
 |-----------------|----------------------|
 |-----------------|----------------------|

[A]E Q E Q E E +E E Q E E Q
 
 |---------------------|--------------------------||
 |-2-2---2--2-----2--2-|-(2)--2--2-----2--2--2----||
 |-2-2---2--2-----2--2-|-(2)--2--2-----2--2--2----||
 |-2-2---2--2-----2--2-|-(2)--2--2-----2--2--2----||
 |-0-0---0--0-----0--0-|-(0)--0--0-----0--0--0----||
 |---------------------|--------------------------||

|
| E E E E E E E E E E E E E E E E
 
 |---------------------|--------------------------||
 |---------------------|--------------------------||
 |---------------------|--------------------------||
 |-7-9-9-9s11-11-11s13-|-13--13s14-14-14s16-16-16-||
 |---------------------|--------------------------||
 |---------------------|--------------------------||

Verse
[C#m] Q E. S S S E E E +E E E E E E E E
 
 |--------------------------|--------------------------------|
 |--------------------------|--------------------------------|
 |--9---9---9-------9-------|------------------------------9-|
 |-11--11--11-9h11-11-11-11-|-(11)-11-11-11-11-11------11-11-|
 |-11--11--11-9h11-11-11-11-|-(11)-11-11-11-11-11------11-11-|
 |--9---9---9-9-----------9-|--(9)--9--9--9--9--9-------9--9-|

|
| ~~
| W +H. a Q
 
 |--------------------------|--------------------------------|
 |--------------------------|--------------------------------|
 |-13-----------------------|-(13)----------------(13)s16----|
 |--------------------------|--------------------------------|
 |--------------------------|--------------------------------|
 |--------------------------|--------------------------------|

[C] Q E. S E E E E +E E E E E [D] E E E
 
 |------------------------|------------------------------|
 |------------------------|----------------------7--7----|
 |--9---9---9--9-10--9--9-|--(9)--9--9--9--------7--7----|
 |-10--10--10-10-10-10-10-|-(10)-10-10-10--------7--7----|
 |-10--10--10-10-10-10-10-|-(10)-10-10-10--------5--5--0-|
 |--8---8---8--8--8--8--8-|--(8)--8--8--8----------------|

|
| W +Q E S S E E E E
 
 |------------------------|------------------------------|
 |------------------------|------------------------------|
 |-12---------------------|-(12)----11h12p11----11-14-14-|
 |------------------------|------------------14----------|
 |------------------------|------------------------------|
 |------------------------|------------------------------|

[C#m] Q E. S S S E E E +E E E E E E E E
 
 |--------------------------|----------------------------|
 |--------------------------|----------------------------|
 |--9---9---9-------9-------|------------------------9---|
 |-11--11--11-9h11-11-11-11-|-(11)-11-11-11--11--11-11---|
 |-11--11--11-9h11-11-11-11-|-(11)-11-11-11--11--11-11-0-|
 |--9---9---9-9-----------9-|--(9)--9--9--9---9---9--9---|

|
| ~~
| W +H +E E Q
 
 |--------------------------|----------------------------|
 |--------------------------|----------------------------|
 |-13-----------------------|-(13)----------(13)-13s16---|
 |--------------------------|----------------------------|
 |--------------------------|----------------------------|
 |--------------------------|----------------------------|

[C] Q E. S E E E E +E E E E E E E E
 
 |------------------------|--------------------------------|
 |------------------------|--------------------------------|
 |--9---9---9--9-10--9--9-|--(9)--9--9--9-----9--9--9------|
 |-10--10--10-10-10-10-10-|-(10)-10-10-10----10-10-10------|
 |-10--10--10-10-10-10-10-|-(10)-10-10-10----10-10-10--0---|
 |--8---8---8--8--8--8--8-|--(8)--8--8--8-----8--8--8------|

|
| W +Q E S S E E E E
 
 |------------------------|--------------------------------|
 |------------------------|--------------------------------|
 |-12---------------------|-(12)----11h12p11----11-11-11S==|
 |------------------------|------------------14------------|
 |------------------------|--------------------------------|
 |------------------------|--------------------------------|

[B] Q E. S E E E E +E E E. S E E E E
 
 |------------------------|----------------------------|
 |--4---4---4--4--4--4--4-|--(4)--4--4---4--4--4--4--4-|
 |--4---4---4--4--4--4--4-|--(4)--4--4---4--4--4--4--4-|
 |--4---4---4--4--4--4--4-|--(4)--4--4---4--4--4--4--4-|
 |--2---2---2--0--2--0--2-|--(2)--2--2---2--0--2--2--0-|
 |------------------------|----------------------------|

|
| ~~~
| Q E. S E E E E +E E E. S E E E E
 
 |------------------------|----------------------------|
 |------------------------|----------------------------|
 |-16--16--16-14-16-14-16-|-(16)-16-16--16-14-16-16-16-|
 |------------------------|----------------------------|
 |------------------------|----------------------------|
 |------------------------|----------------------------|

[A] E Q E Q E E +E E Q Q E S S
 
 |-------------------------|----------------------------------||
 |--2--2-----2--2-----2--2-|-(2)--2-2-----2------------2------||
 |--2--2-----2--2-----2--2-|-(2)--2-2-----2------------2-1-1--||
 |--2--2-----2--2-----2--2-|-(2)--2-2-----2------------2-2-2--||
 |--0--0-----0--0-----0--0-|-(0)--0-0-----0------------0-2-2--||
 |-------------------------|-----------------------------0-0--||

|
| E E E E E E E E E E E E E +S S E E
 
 |-------------------------|----------------------------------||
 |-------------------------|----------------------------------||
 |-16-14-14-14-13-13-13-11-|-11--11-9-11-11b13r(11)p9-11p9----||
 |-------------------------|----------------------------------||
 |-------------------------|----------------------------------||
 |-------------------------|----------------------------------||

Chorus
$
E(type 2)
Gtr I
Q E. S E E E E +E E E E +E E E E
| | | | | | | | | | | | | | |
[/] [/] [/] [/] [/] [/] [/] [/] [/] [/] [/] [/] [/] [/] [/] 
Gtrs II, IV
Q E S S E E E E +E E E E E E E S S
 
 ||----------------------------|----------------------------|
 ||o---------------------------|----------------------------|
 ||--13--13--13-13-13-14-16-14-|-(14)-13-13-11-11-9-9S13-13-|
 ||----------------------------|----------------------------|
 ||o-11--11--11-11-11-12-14-12-|-(12)-11-11--9--9-7-7S11-11-|
 ||----------------------------|----------------------------|

Q E. S E E E E +E E E E +E E E E
| | | | | | | | | | | | | | |
[/] [/] [/] [/] [/] [/] [/] [/] [/] [/] [/] [/] [/] [/] [/] 
Q E S S E E E E +E E E E E E E E
 
 |---------------------------|-------------------------|
 |---------------------------|-------------------------|
 |-13--13--13-13-13-14-16-14-|-(14)-13-13-11-11-9-9-0--|
 |---------------------------|----------------------0--|
 |-11--11--11-11-11-12-14-12-|-(12)-11-11--9--9-7-7-0--|
 |---------------------------|-------------------------|

AV
Gtr I
Q E. S E E E E +E E E E +E E E E
| | | | | | | | | | | | | | |
[/] [/] [/] [/] [/] [/] [/] [/] [/] [/] [/] [/] [/] [/] [/] 
Gtr II
Q E. S E Q E +E E E E E E E E
 
 |-------------------|-------------------------|
 |-------------------|-------------------------|
 |-6--6----6-6-4---6-|-(6)-6-6S14-14-13--13-11-|
 |-------------------|-------------------------|
 |-4--4----4-4-2---4-|-(4)-4-4S12-12-11--11--9-|
 |-------------------|-------------------------|

|
| Gtr IV
| Q E E E E Q +E E E E E Q.
 
 |----0--------------|-----0-------------------|
 |-------0-----------|-------0-----------------|
 |-----------6-------|----------6--------------|
 |-7-----------7-7---|-(7)---------7--7--------|
 |-7-------------7---|-(7)------------7--------|
 |-5-------------5---|-(5)------------5--------|

|
| Gtr III
| W +W
 
 |-0-----------------|-(0)---------------------|
 |-2-----------------|-(2)---------------------|
 |-2-----------------|-(2)---------------------|
 |-2-----------------|-(2)---------------------|
 |-0-----------------|-(0)---------------------|
 |-------------------|-------------------------|

To Coda
BVII
Q E. S E E E E +E E E E +E E E E
| | | | | | | | | | | | | | |
[/] [/] [/] [/] [/] [/] [/] [/] [/] [/] [/] [/] [/] [/] [/] 
Q E S S E E E E +E E E E E E E E
 
 |---------------------------|--------------------------||
 |---------------------------|-------------------------o||
 |-11--11--11-11-11-11-11-11-|-(11)-8-8-9--9S11-11-11---||
 |---------------------------|--------------------------||
 |--9---9---9--9--9--9--9--9-|--(9)-6-6-7--7S=9--9--9--o||
 |---------------------------|--------------------------||

|
| Q E E E E Q +E E E E E Q E
 
 |------0--------------------|------0-------------------||
 |----------0----------------|--------0----------------o||
 |----------------8----------|----------8---------------||
 |--9----------------9--9----|--(9)--------9--9---------||
 |--9-------------------9----|--(9)-----------9--------o||
 |--7-------------------7----|--(7)-----------7-----0---||

|
| W W
 
 |---------------------------|--------------------------||
 |---------------------------|-------------------------o||
 |---------------------------|--------------------------||
 |---------------------------|--------------------------||
 |---------------------------|-------------------------o||
 |---------------------------|--------------------------||

[A5]Gtrs I, IV
E Q E Q E E +E E Q Q Q
| | | | | | | | | | |
[/] [/] [/] [/] [/] [/] [/] [/] [/] [/] [/]  
Gtr II
E Q E Q E E +E E Q Q Q
 
 |---------------|----------------||
 |---------------|----------------||
 |-9-9--9-9--9-9-|-(9)S6-6--6--4--||
 |---------------|----------------||
 |-7-7--7-7--7-7-|-(7)S4-4--4--2--||
 |---------------|----------------||

Guitar Solo
[C#m]Gtr III
H. +E E H. E E
| | | | | |
/ / x / / x
Gtr I
Q Q E E E E +E E Q E E E E
 
 |--------------------------|-----------------------------|
 |---5---5------5-5----5--5-|--(5)--5-5-----5----5----5---|
 |---6---6------6-6----6--6-|--(6)--6-6-----6----6----6---|
 |---6---6------6-6----6--6-|--(6)--6-6-----6----6----6---|
 |---4---4------4-4----4--4-|--(4)--4-4-----4----4----4-0-|
 |--------------------------|-----------------------------|

|
| Gtr IV
| a Q E E a E E a E E +E E E E E. S E E
 
 |--------------------------|-----------------------------|
 |--------------------------|-----------------------------|
 |------------------9s11----|---------9-11-11b12r==9-11-9-|
 |----------------9------11-|-(11)-11---------------------|
 |-------7-x-9s11-----------|-----------------------------|
 |-7s9----------------------|-----------------------------|

[C] H. +E E H E [D] E E E
| | | | | | | |
/ / x / / / / o
Q Q E E E E +E E Q E E E E
 
 |-------------------------------|------------------------------||
 |-----5------5-----5----5--5--5-|--(5)--5--5-------------------||
 |-----5------5-----5----5--5--5-|--(5)--5--5--------5S=7--7----||
 |-----5------5-----5----5--5--5-|--(5)--5--5----------------7--||
 |-----3------3-----3----3--3--3-|--(3)--3--3--------3S=5--5-0--||
 |-------------------------------|------------------------------||

|
| a E E E E Q E E +E E E S S E E Q
 
 |-------------------------------|------------------------------||
 |-----------13-15-15b17r==13----|------------------------------||
 |--------12------------------12-|-(12)-12-11h12p11-------------||
 |-12s14-------------------------|------------------14-12-12----||
 |-------------------------------|------------------------------||
 |-------------------------------|------------------------------||

Verse
[C#m]Gtrs I, III
Q E. S S S E E E +E S S E E E E E E
 
 |--------------------------|--------------------------------|
 |--------------------------|--------------------------------|
 |--9---9---9-------9-------|------------------------------9-|
 |-11--11--11-9h11-11-11-11-|-(11)-11-11-11-11--11--11-11-11-|
 |-11--11--11-9h11-11-11-11-|-(11)-11-11-11-11--11--11-11-11-|
 |--9---9---9-9-----------9-|--(9)--9--9--9--9---9---9--9--9-|

|
| Gtrs II, IV
| W +H +E E Q
 
 |--------------------------|--------------------------------|
 |--------------------------|--------------------------------|
 |--------------------------|--------------------------------|
 |-11-----------------------|-(11)-------------(11)-11s14----|
 |--------------------------|--------------------------------|
 |--------------------------|--------------------------------|

[C] Q E. S E E E E +E E E E E [D] E E E
 
 |------------------------|-----------------------------|
 |------------------------|----------------------7--7---|
 |--9---9---9--9-10--9--9-|--(9)--9--9--9--------7--7---|
 |-10--10--10-10-10-10-10-|-(10)-10-10-10--------7--7---|
 |-10--10--10-10-10-10-10-|-(10)-10-10-10--------5--5-0-|
 |--8---8---8--8--8--8--8-|--(8)--8--8--8---------------|

|
| W +H a E E Q
 
 |------------------------|-----------------------------|
 |------------------------|-----------------------------|
 |------------------------|-----------------------------|
 |-10---------------------|-(10)----------------12-12---|
 |------------------------|---------------10s12---------|
 |------------------------|-----------------------------|

[C#m] Q E. S S S E E E +E E E E E E E E
 
 |--------------------------|----------------------------|
 |--------------------------|----------------------------|
 |--9---9---9-------9-------|------------------------9---|
 |-11--11--11-9h11-11-11-11-|-(11)-11-11-11--11--11-11---|
 |-11--11--11-9h11-11-11-11-|-(11)-11-11-11--11--11-11-0-|
 |--9---9---9-9-----------9-|--(9)--9--9--9---9---9--9---|

|
| W +H +E E Q
 
 |--------------------------|----------------------------|
 |--------------------------|----------------------------|
 |--------------------------|----------------------------|
 |-11-----------------------|-(11)----------(11)-11s14---|
 |--------------------------|----------------------------|
 |--------------------------|----------------------------|

[C] Q E. S E E E E +E E E E E E E E
 
 |----------------8--8--8-|--(8)------------------------|
 |----------------8--8--8-|--(8)------------------------|
 |--9---9---9--9-10--9--9-|--(9)--9--9--9----9--9--9----|
 |-10--10--10-10-10-10-10-|-(10)-10-10-10---10-10-10----|
 |-10--10--10-10-10-10-10-|-(10)-10-10-10---10-10-10-0--|
 |--8---8---8--8--8--8--8-|--(8)--8--8--8----8--8--8----|

|
| W +Q E S S E E E E
 
 |------------------------|-----------------------------|
 |------------------------|-----------------------------|
 |------------------------|-----------------------------|
 |-10---------------------|-(10)-----9h10p9S=7--9--9-7--|
 |------------------------|-----------------------------|
 |------------------------|-----------------------------|

[B]Q E. S E E E E +E E E. S E E E E
 
 |-----------------|----------------------|
 |-4--4--4-4-4-4-4-|-(4)-4-4----4-4-4-4---|
 |-4--4--4-4-4-4-4-|-(4)-4-4----4-4-4-4-0-|
 |-4--4--4-4-4-4-4-|-(4)-4-4----4-4-4-4-0-|
 |-2--2--2-2-2-2-2-|-(2)-2-2----2-2-2-2-0-|
 |-----------------|----------------------|

|
| ~~~~~~
| Q E. S E E E E +E E E S S E E E E
 
 |-----------------|----------------------|
 |-----------------|----------------------|
 |-----------------|----------------------|
 |-9--9--9-7-9-7-9-|-(9)-9-9--9-9-7-9-9-9-|
 |-----------------|----------------------|
 |-----------------|----------------------|

D.S. al Coda
[A]E Q E Q E E +E E Q Q E E
 
 |---------------------|--------------------------||
 |-2-2---2--2-----2--2-|-(2)--2--2-----2-----2--2-||
 |-2-2---2--2-----2--2-|-(2)--2--2-----2-----2--2-||
 |-2-2---2--2-----2--2-|-(2)--2--2-----2-----2--2-||
 |-0-0---0--0-----0--0-|-(0)--0--0-----0-----0--0-||
 |---------------------|--------------------------||

|
| E E E E E E E E E E E E E E E E
 
 |---------------------|--------------------------||
 |---------------------|--------------------------||
 |---------------------|--------------------------||
 |-7-9-9-9s11-11-11s13-|-13--13s14-14-14s16-16-16-||
 |---------------------|--------------------------||
 |---------------------|--------------------------||

&
[A5]Gtrs I, II, IV
E E E E E E E E E E E E E E q
 
 |-----------------|----------------||
 |-----------------|----------------||
 |-2-2---2-2---2-2-|---2-2---2---2--||
 |-2-2---2-2---2-2-|---2-2---2---2--||
 |-0-0---0-0---0-0-|---0-0---0---0--||
 |-----------------|----------------||

Breakdown
[E]Gtr III[Esus4]
Q E. S E E E S S Q E. S E E E S S
| | | | | | | | | | | | | | | |
[/] [/] [/] [/] [/] [/] [/] [/] [/] [/] [/] [/] [/] [/] [/] [/] 
Gtrs I, II
W W
 
 |-0------------------|--0------------------|
 |-0------------------|--0------------------|
 |-1------------------|--2------------------|
 |-2------------------|--2------------------|
 |-2------------------|--2------------------|
 |-0------------------|--0------------------|

|
| Gtr IV
| < <
| H. Q H. Q
 
 |--------------------|---------------------|
 |-9------------------|-10------------------|
 |-9------------------|--9------------------|
 |-9------------------|--9------------------|
 |--------------------|---------------------|
 |--------------------|---------------------|

[Bmaj7sus4/E] Q E. S E E E S S [C]W
| | | | | | | |
[/] [/] [/] [/] [/] [/] [/] [/]  
Gtrs I, II, III
W Q E S S E E Q
 
 |--0-------------------|------------------|
 |--0-------------------|------------------|
 |--3-------------------|-5--5-5-5-5-4-2---|
 |--2-------------------|------------------|
 |--2-------------------|-3--3-3-3-3-2-0---|
 |--0-------------------|------------------|

|
| <
| TP
| H. Q Q E S S E E Q
 
 |----------------------|------------------|
 |-11-------------------|------------------|
 |--9-------------------|-5--5-5-5-5-4-2---|
 |--9------------x\-----|------------------|
 |----------------------|-3--3-3-3-3-2-0---|
 |----------------------|------------------|

[E]Gtr III[Esus4]
Q E. S E E E S S Q E. S E E E S S
| | | | | | | | | | | | | | | |
[/] [/] [/] [/] [/] [/] [/] [/] [/] [/] [/] [/] [/] [/] [/] [/] 
Gtrs I, II
W W
 
 |-0------------------|-0------------------|
 |-0------------------|-0------------------|
 |-1------------------|-2------------------|
 |-2------------------|-2------------------|
 |-2------------------|-2------------------|
 |-0------------------|-0------------------|

|
| < <
| H. Q H. Q
 
 |--------------------|--------------------|
 |--------------------|--------------------|
 |-1------------------|-2------------------|
 |-2------------------|-2------------------|
 |-2------------------|-2------------------|
 |-0------------------|-0------------------|

[Bmaj7sus4/E]Q E. S E E E S S [C]W
| | | | | | | |
[/] [/] [/] [/] [/] [/] [/] [/]  
Gtrs I, II, III
W Q E S S E E Q
 
 |-0-------------------|------------------------|
 |-0-------------------|------------------------|
 |-3-------------------|-5-------5---5-5-5-4-2--|
 |-2-------------------|------------------------|
 |-2-------------------|-3-------3---3-3-3-2-0--|
 |-0-------------------|------------------------|

|
| <
| TP
| H. Q S S S S S S S S E E Q
 
 |---------------------|------------------------|
 |---------------------|------------------------|
 |-3-------------------|-5-5-5-5-5-5-5-5-5-4-2--|
 |-2------------x\-----|------------------------|
 |-2-------------------|-3-3-3-3-3-3-3-3-3-2-0--|
 |-0-------------------|------------------------|

[E]Gtrs I, II[Esus4] [Bmaj7sus4/E] [C]
W W W Q E S S E E Q
 
 |--0----------|--0----------|--0----------|------------------------------------|
 |--0----------|--0----------|--0----------|------------------------------------|
 |--1----------|--2----------|--3----------|--5-----------5-----5--5--5--4--2---|
 |--2----------|--2----------|--2----------|------------------------------------|
 |--2----------|--2----------|--2----------|--3-----------3-----3--3--3--2--0---|
 |--0----------|--0----------|--0----------|------------------------------------|

|
| Gtr IV
| < < <
| H. Q H. Q H. Q S S S S S S S S E E Q
 
 |-------------|-------------|-------------|------------------------------------|
 |-------------|-10----------|-11----------|-13-13-13-13-13-13-13-13-13-12-10---|
 |--1----------|--9----------|--9----------|------------------------------------|
 |--2----------|--9----------|--9----------|-10-10-10-10-10-10-10-10-10--9--7---|
 |--2----------|-------------|-------------|------------------------------------|
 |--0----------|-------------|-------------|------------------------------------|

|
| Gtr III
| TP TP TP TP TP TP TP
| H. Q H. Q W H E E Q
 
 |-------------|-------------|-------------|------------------------------------|
 |-------------|-------------|-------------|------------------------------------|
 |-13----------|-14----------|-15----------|-17----------------------17-16-14---|
 |-------------|-------------|-------------|------------------------------------|
 |-11----------|-12----------|-13----------|-15----------------------15-14-12---|
 |-------------|-------------|-------------|------------------------------------|

[E] W [Esus4] W [Bmaj7sus4/E] W
W W W
 
 |--0--------------|--0----------|--0------------|
 |--0--------------|--0----------|--0------------|
 |--1--------------|--2----------|--3------------|
 |--2--------------|--2----------|--2------------|
 |--2--------------|--2----------|--2------------|
 |--0--------------|--0----------|--0------------|

|
| < < <
| TP
| H. Q H. Q H. Q
 
 |-----------------|-------------|---------------|
 |--9--------------|-10----------|-11------------|
 |--9--------------|--9----------|--9------------|
 |--9--------------|--9----------|--9--------x\--|
 |-----------------|-------------|---------------|
 |-----------------|-------------|---------------|

|
| TP TP TP TP
| H. +E E W H. Q
 
 |-----------------|-------------|---------------|
 |-----------------|-------------|---------------|
 |-13-------(13)---|-14----------|-15-------15\--|
 |-----------------|-------------|---------------|
 |-11-------(11)---|-12----------|-13-------13\--|
 |-----------------|-------------|---------------|

[C]Gtr I
S S S S S S S S S S S S S S S S
| | | | | | | | | | | | | | | |
[/] [/] [/] [/] [/] [/] [/] [/] [/] [/] [/] [/] [/] [/] [/] [/] 
Gtrs II, V
TP
W
 
 |----------------------------------------------------||
 |----------------------------------------------------||
 |--x\------------------------------------------------||
 |--x\------------------------------------------------||
 |--x\------------------------------------------------||
 |----------------------------------------------------||

|
| S S S S S S S S S S S S S S S S
 
 |----------------------------------------------------||
 |-13--13-13-13-13-13-13-13-13-13-13-13-13-13-13-13---||
 |----------------------------------------------------||
 |-10--10-10-10-10-10-10-10-10-10-10-10-10-10-10-10---||
 |----------------------------------------------------||
 |----------------------------------------------------||

|
| TP
| W
 
 |----------------------------------------------------||
 |----------------------------------------------------||
 |-17-------------------------------------------------||
 |----------------------------------------------------||
 |-15-------------------------------------------------||
 |----------------------------------------------------||

Bridge
E(type 2)
W +W
| |
[/] [/]  
Gtrs I, II
Q E S S E E E E +E E E E E E E S S
 
 |--------------------------|----------------------------|
 |--------------------------|----------------------------|
 |-13--13-13-13-13-14-16-14-|-(14)-13-13-11-11-9-9S13-13-|
 |--------------------------|----------------------------|
 |-11--11-11-11-11-12-14-12-|-(12)-11-11--9--9-7-7S11-11-|
 |--------------------------|----------------------------|

W W
Q E S S E E E E +E E E E E E E E
 
 |--------------------------|------------------------|
 |--------------------------|------------------------|
 |-13--13-13-13-13-14-16-14-|-(14)-13-13-11-11-9-9-0-|
 |--------------------------|----------------------0-|
 |-11--11-11-11-11-12-14-12-|-(12)-11-11--9--9-7-7-0-|
 |--------------------------|------------------------|

AV
Gtr I
Q E. S E E E E +E E E E +E E E E
| | | | | | | | | | | | | | |
[/] [/] [/] [/] [/] [/] [/] [/] [/] [/] [/] [/] [/] [/] [/] 
Gtr II
Q E. S E Q E +E E E E E E E E
 
 |-------------------|-------------------------|
 |-------------------|-------------------------|
 |-6--6----6-6-4---6-|-(6)-6-6S14-14-13--13-11-|
 |-------------------|-------------------------|
 |-4--4----4-4-2---4-|-(4)-4-4S12-12-11--11--9-|
 |-------------------|-------------------------|

|
| Gtr IV
| Q E E E E Q +E E E E E Q.
 
 |----0--------------|-----0-------------------|
 |-------0-----------|-------0-----------------|
 |-----------6-------|----------6--------------|
 |-7-----------7-7---|-(7)---------7--7--------|
 |-7-------------7---|-(7)------------7--------|
 |-5-------------5---|-(5)------------5--------|

BVII
Q E. S E E E E +E E E E +E E E E
| | | | | | | | | | | | | | |
[/] [/] [/] [/] [/] [/] [/] [/] [/] [/] [/] [/] [/] [/] [/] 
Q E S S E E E E +E E E E E E E E
 
 |---------------------------|-------------------------||
 |---------------------------|-------------------------||
 |-11--11--11-11-11-11-11-11-|-(11)-8-8-9--9S11-11-11--||
 |---------------------------|-------------------------||
 |--9---9---9--9--9--9--9--9-|--(9)-6-6-7--7S=9--9--9--||
 |---------------------------|-------------------------||

|
| Q E E E E Q +E E E E E Q E
 
 |------0--------------------|------0------------------||
 |----------0----------------|--------0----------------||
 |----------------8----------|----------8--------------||
 |--9----------------9--9----|--(9)--------9--9--------||
 |--9-------------------9----|--(9)-----------9--------||
 |--7-------------------7----|--(7)-----------7-----0--||

Out-Chorus
E(type 2)
Gtr I
Q E. S E E E E +E E E E +E E E E
| | | | | | | | | | | | | | |
[/] [/] [/] [/] [/] [/] [/] [/] [/] [/] [/] [/] [/] [/] [/] 
Gtrs II, IV
Q E S S E E E E +E E E E E E E S S
 
 |---------------------------|----------------------------|
 |---------------------------|----------------------------|
 |-13--13--13-13-13-14-16-14-|-(14)-13-13-11-11-9-9S13-13-|
 |---------------------------|----------------------------|
 |-11--11--11-11-11-12-14-12-|-(12)-11-11--9--9-7-7S11-11-|
 |---------------------------|----------------------------|

Q E. S E E E E +E E E E +E E E E
| | | | | | | | | | | | | | |
[/] [/] [/] [/] [/] [/] [/] [/] [/] [/] [/] [/] [/] [/] [/] 
Q E S S E E E E +E E E E E E Q
 
 |---------------------------|------------------------|
 |---------------------------|------------------------|
 |-13--13--13-13-13-14-16-14-|-(14)-13-13-11-11-9-9---|
 |---------------------------|------------------------|
 |-11--11--11-11-11-12-14-12-|-(12)-11-11--9--9-7-7---|
 |---------------------------|------------------------|

AV
Gtr I
Q E. S E E E E +E E E E +E E E E
| | | | | | | | | | | | | | |
[/] [/] [/] [/] [/] [/] [/] [/] [/] [/] [/] [/] [/] [/] [/] 
Gtr II
Q E. S E Q E +E E E E E E Q
 
 |-------------------|-----------------------|
 |-------------------|-----------------------|
 |-9--9----9-9-9---9-|-(9)-9-9S6-14-13--13---|
 |-------------------|-----------------------|
 |-7--7----7-7-7---7-|-(7)-7-7S4-12-11--11---|
 |-------------------|-----------------------|

|
| Gtr IV
| Q E E E E Q +E E E E E Q.
 
 |----0--------------|-----0-----------------|
 |-------0-----------|-------0---------------|
 |-----------6-------|---------6-------------|
 |-7-----------7-7---|-(7)--------7--7-------|
 |-7-------------7---|-(7)-----------7-------|
 |-5-------------5---|-(5)-----------5-------|

BVII
Q E. S E E E E +E E E E +E E E E
| | | | | | | | | | | | | | |
[/] [/] [/] [/] [/] [/] [/] [/] [/] [/] [/] [/] [/] [/] [/] 
Q E S S E E E E +E E E E E E E E
 
 |-------------------|------------------------|
 |-------------------|------------------------|
 |-8--8--8-8-8-8-8-8-|-(8)-8-8-9--9S11-11-11--|
 |-------------------|------------------------|
 |-6--6--6-6-6-6-6-6-|-(6)-6-6-7--7S=9--9--9--|
 |-------------------|------------------------|

|
| Q E E E E Q +E E E E E Q E
 
 |----0--------------|-----0------------------|
 |-------0-----------|-------0----------------|
 |-----------8-------|---------8--------------|
 |-9-----------9-9---|-(9)--------9--9--------|
 |-9-------------9---|-(9)-----------9--------|
 |-7-------------7---|-(7)-----------7-----0--|

[A5]Gtrs I, III
E Q E Q E E +E E Q Q Q
| | | | | | | | | | |
[/] [/] [/] [/] [/] [/] [/] [/] [/] [/] [/] 
Gtr II
E Q E Q E E +E E Q Q Q
 
 |-------------------------|--------------------------|
 |-------------------------|--------------------------|
 |--9--9-----9--9-----9--9-|-(9)--9--9-----9-----9----|
 |-------------------------|--------------------------|
 |--7--7-----7--7-----7--7-|-(7)--7--7-----7-----7----|
 |-------------------------|--------------------------|

|
| E E E E E E E E E E E E E E E E
 
 |-------------------------|--------------------------|
 |----14-------14-------14-|--------14-------14-------|
 |-------14-------14-------|-14--------14-------14----|
 |-14-------14-------14----|-----14-------14-------14-|
 |-12----------------------|--------------------------|
 |-------------------------|--------------------------|

E(type 2)
E Q E Q E E +E E Q Q Q W
| | | | | | | | | | | |
[/] [/] [/] [/] [/] [/] [/] [/] [/] [/] [/] [/] 
E Q E Q E E +E E Q Q Q W
 
 |-------------------------|--------------------------|------*|
 |-------------------------|--------------------------|------*|
 |--9--9-----9--9-----9--9-|-(9)--9--9-----9-----9----|-9----*|
 |-------------------------|--------------------------|------*|
 |--7--7-----7--7-----7--7-|-(7)--7--7-----7-----7----|-7----*|
 |-------------------------|--------------------------|-0----*|

|
| E E E E E E E E E E E E E E E E W
 
 |-------------------------|--------------------------|-0----*|
 |----13-------13-------13-|--------13-------13-------|-0----*|
 |-------14-------14-------|-14--------14-------14----|-1----*|
 |-14-------14-------14----|-----14-------14-------14-|-2----*|
 |-12----------------------|--------------------------|-2----*|
 |-------------------------|--------------------------|-0----*|

Duration Legend
 
 ---------------
 W - whole; H - half; Q - quarter; E - 8th; S - 16th; T - 32nd; X - 64th; a - acciaccatura

+ - note tied to previous; . - note dotted; .. - note double dotted
Uncapitalized letters represent notes that are staccato (1/2 duration)
Irregular groupings are notated above the duration line
Duration letters will always appear directly above the note/fret number it represents the
duration for. Duration letters with no fret number below them represent rests. Multi-
bar rests are notated in the form Wxn, where n is the number of bars to rest for. Low
melody durations appear below the staff
Tablature Legend
 
 ----------------

h - hammer-on
p - pull-off
b - bend
pb - pre-bend
r - bend release (if no number after the r, then release immediately)
/\ - slide into or out of (from/to "nowhere")
s - legato slide
S - shift slide
- natural harmonic
(n) - artificial harmonic
n(n) - tapped harmonic
~ - vibrato
tr - trill
T - tap
TP - trem. picking
PM - palm muting
\n/ - tremolo bar dip; n = amount to dip
\n - tremolo bar down
n/ - tremolo bar up
/n\ - tremolo bar inverted dip
= - hold bend; also acts as connecting device for hammers/pulls
- volume swell (louder/softer)
x - on rhythm slash represents muted slash
o - on rhythm slash represents single note slash
Misc Legend
 
 -----------

| - bar
|| - double bar
||o - repeat start
o|| - repeat end
*| - double bar (ending)
: - bar (freetime)
$ - Segno
& - Coda
Tempo markers - = BPM(8/16=s8/s16), where s8 = swing 8ths, s16 = swing 16ths

Important: The song above is NOT stored on the Chordie server. The original song is hosted at www.guitaretab.com. Chordie works as a search engine and provides on-the-fly formatting. Chordie does not index songs against artists'/composers' will. To remove this song please click here.

Text color:
Chord color:
Chord grids: 
Font size:    
Page size: 

A A5 B C C#m D E Esus4
Rate #1 of 2 versions

Jango Player

Login - add to songbook

SHARE PAGE  




You need to log in to post comments