Guitar Tabs, Chords and Lyrics
Major upgrade!! After one year development the new version of Chordie is now online! Please give feedback.


You Love Us  Manic Street Preachers

I havent seen any tabs for the solos in this song, which is suprising considering how
they are.
Its quite hard but you'll get it with a lot of practice.
I added the chords, but if you want a real idea of where the changes are, there are
some good chord tabs out there.
Intro
Rhythm
E/D G x2
[F] [C] [G]  
Lead (enters after E/D G chords)
 
 e----------------------------|
 B-7^-7^-5^-------------------|
 G-5^-5^-3^-2^-2~--0-2-2^-2-0-|
 D----------------------------|
 A----------------------------|
 E----------------------------|
 e---3--------------3^----3^----3^----3^----|
 B-----1---------3^-3^-3^-3^-3^-3^-3^-3^-3~-|
 G-------2-2-0---5^----5^----5^----5^----5~-|
 D-3-----------3----------------------------|
 A------------------------------------------|
 E------------------------------------------|

Verse 1
Rhythm
F C G x4
D C x4
Chorus 1
Rhythm + Lead
E/D G x2
[D]E/[C]D G x2
[D] [C]  
Pre-Verse
Rhythm
E/D G x2
[F] [C] [G]  
Lead
 
 e----------------------------|
 B-7^-7^-5^-------------------|
 G-5^-5^-3^-2^-2~--0-2-2^-2-0-|
 D----------------------------|
 A----------------------------|
 E----------------------------|
 e-5-6-5-3-5-3/1---1---------------|
 B---------------3---3h1---1-3^-3~-|
 G-----------------------2---------|
 D---------------------------------|
 A---------------------------------|
 E---------------------------------|

Verse 2
Rhythm
F C G x4
D C x4
Chorus 2
Rhythm + Lead
E/D G x2
[D]E/[C]D G x2
[D]E/[C]D G x2
[D]E/[C]D G x2
[D] [C]  
Solo
Rhythm
[G] [A#] [C] [D#]  
Lead
 
 e-----------------------------------|
 B-----------------------------------|
 G-----------------------------------|
 D-----------------------------------|
 A-----------------------------------|

[E///////////////////////////////////] 

Important: The song above is NOT stored on the Chordie server. The original song is hosted at www.guitaretab.com. Chordie works as a search engine and provides on-the-fly formatting. Chordie does not index songs against artists'/composers' will. To remove this song please click here.

Text color:
Chord color:
Chord grids: 
Font size:    
Page size: 

A# C D D# F G
Rate #1 of 6 versions

Jango Player

Login - add to songbook

SHARE PAGE  




You need to log in to post comments