Guitar Tabs, Chords and Lyrics
Server problems seems to be fixed. Chordie has been experiencing problems with songs disappearing. These issues now seems to be fixed, but still verifying the fix. If you find anything strange, please email admin@chordie.com.


Necropolis   Manilla Road

 
 e|-7-6-4---7-6-4---4-|
 B|-----------------6-|
 G|-----------------6-|
 D|-------------------|
 A|-------------------|
 E|-------------------|

 


 


 Verse(play 4x for each verse):


 

 
 e|--------------------------------------|
 B|--------------------------------------|
 G|--------------------------------------|
 D|-6--6--6--986--2--2--2--2--4--4--4--4-|
 A|-6--6--6--986--2--2--2--2--4--4--4--4-|
 E|-4--4--4--764--0--0--0--0--2--2--2--2-|

 


 through the jungle by the river Styx,


 we journeyed long and far this day


 ?


 


 Prechorus (play once for each prechorus):


 

 
 e|------------------------------------------------|
 B|------------------------------------------------|
 G|------------------------------------------------|
 D|-9--9--9--9--11-11-11-11-2--2--2--2--4--4--4--4-|
 A|-9--9--9--9--11-11-11-11-2--2--2--2--4--4--4--4-|
 E|-7--7--7--7--9--9--9--9--0--0--0--0--2--2--2--2-|

 


 inside a dream, but my mind tells me I?m


 


 Chorus (played 4x for chorus):


 

 
 e|------------------------------------------------|
 B|------------------------------------------------|
 G|------------------------------------------------|
 D|-2--2--2--2--6--6--6--6--4--4--4--4--4--4--4--4-|
 A|-2--2--2--2--6--6--6--6--4--4--4--4--4--4--4--4-|
 E|-0--0--0--0--4--4--4--4--2--2--2--2--2--2--2--2-|

 


 Lost in necropolis?


 


 Bridge (played before solo. Sustain chords. Played 2x for bridge, then enter solo):


 

 
 e|-------------------------|
 B|-------------------------|
 G|-------------------------|
 D|-6------2------6----9--8-|
 A|-6------2------6----9--8-|
 E|-4------0------4----7--6-|


Important: The song above is NOT stored on the Chordie server. The original song is hosted at www.guitaretab.com. Chordie works as a search engine and provides on-the-fly formatting. Chordie does not index songs against artists'/composers' will. To remove this song please click here.

This song is displayed as text-only. Transposing and tuning is only available for chordpro-songs.
Rate #1 of 1 versions

Jango Player

Login - add to songbook

SHARE PAGE  



You need to log in to post comments