Guitar Tabs, Chords and Lyrics
Major upgrade!! After one year development the new version of Chordie is now online! Please give feedback.


Always Be My Baby  Mariah Carey

 
 -----------------------------------------------------------------------------

Always Be My Baby - Mariah Carey
 
 -----------------------------------------------------------------------------

Tabbed by: Alex M.
Email: alexmena87@gmail.com
Tuning: Standard
Chords:
[E] [A] [A/B] [Cdmin7] [B/D#] [C#m7] [G#m7] [Amaj7] [F#m7] [F#m7/B] [B]  
 
 e|-0--0---0-----2-----X----4----4----X-----2-----2----2---|
 B|-0--2---2-----1-----4----5----4----5-----2-----2----4---|
 G|-1--2---2-----2-----4----4----4----6-----2-----2----4---|
 D|-2--2---2-----1-----4----6----4----6-----2-----2----4---|
 A|-2--0---2-----X-----6----4----6----X-----4-----2----2---|
 E|-0--X---X-----X-----X----X----4----5-----2-----X----X---|

F#7 G#7 A* B* C* F Bb Bb/C C#dim7 Dm7 Am7
 
 e|-2----4--5--7--8---1--1---1------3-----5---5---|
 B|-2----4--5--7--8---1--3---3------2-----6---5---|
 G|-3----5--6--8--9---2--3---3------3-----5---5---|
 D|-2----4--7--9--10--3--3---3------2-----7---5---|
 A|-4----6--7--9--10--4--1---3------X-----5---7---|
 E|-2----4--5--7--8---X--X---X------X-----X---5---|

Intro: 00:25
 
 E--------A----A/B--Cdim7--C#m7--------A--A/B--

[E]We were as [B/D#]one b[C#m7]aby
For a moment in [G#m7]time[Amaj7]
[Amaj7]And it seemed everlasting
[F#m7]That you would alway[F#m7/B]s be min[B]e[E]
[E]Now you want to[B/D#] be f[C#m7]ree
So I'm letting yo[G#m7]u fly[Amaj7]
[Amaj7]Cause i know in my heart baby
[F#m7]Our love will never[F#m7/B] die, n[B]o![E]
[E]You'll always be a part of me
[A]I'm a part of you i[A/B]ndefin[Cdim7]itely
[C#m7]Boy don't you know you can't esca[G#m7]pe me[A]
[A]Ooh darling cause you'll al[A/B]ways be my baby[E]
[E]And we'll linger on
[A]Time can't erase a feeling [A/B]this s[Cdim7]trong
[C#m7]No way you're never gonna sha[G#m7]ke me[A]
[A]Ooh darling cause you'll alw[A/B]ays be my baby
[E](do do do[A]op)[A/B]
[A/B](do do doop do doop da dum)
[E](do do doo[A]p du[A/B]m)
[A/B](do do doop do doop da du[E]m)
[E]I ain't gonn[B/D#]a cry[C#m7] no
And i won't beg yo[G#m7]u to [Amaj7]stay
[Amaj7]If you're determined to leave boy
[F#m7]I will not stand in [F#m7/B]your way[B] [E]
[E]But inevita[B/D#]bly [C#m7]
You'll be back ag[G#m7]ain[Amaj7]
[Amaj7]Cause ya know in your heart babe
[F#m7]Our love will never [F#m7/B]end no [B] [E]
[E]You'll always be a part of me
[A]I'm a part of you i[A/B]ndefin[Cdim7]itely
[C#m7]Boy don't you know you can't esca[G#m7]pe me[A]
[A]Ooh darling cause you'll al[A/B]ways be my baby[E]
[E]And we'll linger on
[A]Time can't erase a feeling [A/B]this s[Cdim7]trong
[C#m7]No way you're never gonna sha[G#m7]ke me[A]
[A]Ooh darling cause you'll alw[A/B]ays be my baby
Bridge:
[C#m7]I know that[F#7] you'll be back bo[G#7]y[A]
[A]When your days and your nights get a little b[G#m7]it colder
[C#m7]I know that,[F#7]you'll be right back, ba[G#7]by[A]
A* B* C*
Baby believe me it's only a matter of time
C*
Of time
[F]You'll always be a part of me
[Bb]I'm part of you [Bb/C]indefinit[C#dim7]ely
[Dm7]Boy don't you know you can't esca[Am7]pe me[Bb]
[Bb]Ooh darlin cause you'l[Bb/C]l always be my[F] baby
[F]And we'll linger on (and we will linger on)
[Bb]Time cant erase a feelin[Bb/C]g this [C#dim7]strong
[Dm7]No way you're never gonna sh[Am7]ake me[Bb] (oh baby)
[Bb]Ooh darlin cause you'll [Bb/C]always be my baby
(Play Bb Here like This)
 
 e|---6---
 B|---6---
 G|---7---
 D|---8---
 A|---8---
 E|---6---

Repeat.

Important: The song above is NOT stored on the Chordie server. The original song is hosted at www.guitaretab.com. Chordie works as a search engine and provides on-the-fly formatting. Chordie does not index songs against artists'/composers' will. To remove this song please click here.

Text color:
Chord color:
Chord grids: 
Font size:    
Page size: 

A A/B Am7 Amaj7 B Bb Bb/C C#dim7 C#m7 Cdim7 Dm7 E F F#7 F#m7 G#7 G#m7
Rate #1 of 10 versions

Login - add to songbook

SHARE PAGE  



You need to log in to post comments