Guitar Tabs, Chords and Lyrics
Server problems seems to be fixed. Chordie has been experiencing problems with songs disappearing. These issues now seems to be fixed, but still verifying the fix. If you find anything strange, please email admin@chordie.com.


Nobody's Got the Gun  Mark Knopfler

 
 -------------------------------------------------------------------------------

Nobody's Got The gun - Nobody's Got The Gun
 
 -------------------------------------------------------------------------------

Tabbed by: fffoma@gmail.com
Chords:
Fadd9 (3xx211)
Nobody's got the g[C]un
Nobody's trying to get the dr[Dm]op on an[G]yone
Nobody's st[C]anding out on main street
With the s[C7]un blazing down
Saying "There's [F]only room for one of us[D7] in this here town"
Nob[C]ody's got the be the number [Am]one
Nob[C]ody's got the be the number [F]one
Nob[C/G]ody's got the be the number [G]one
Nobody's got the g[Dm]un[G]
Nobody's got the g[C]un[Fadd9] [C] [Fadd9]
She may not underst[C]and
And she may want you [Dm]eating from her h[G]and
If she's g[C]ot you in a corner
And you can sm[C7]ell the smoke and flame
You r[F]each for your revolver[D7]
To do the same
You'll blow your l[C]ove away forever, number [Am]one
You'll blow your l[C]ove away forever, number[F] one
You'll blow your l[C/G]ove away forever, number [G]one
Nobody's got the g[Dm]un[G]
Nobody's got the g[C]un[Fadd9] [C] [Fadd9]
Solo: C Dm G
 
 e|-----------------|------|---------------------|--------------------------|
 B|-------5---------|------|----------5-----5--8-|6----5h6p5----------------|
 G|---------------7b|5~~~--|---------5---7-------|-----------7------------5b|
 D|----5-----5------|------|--------5------------|--------------------------|
 A|-----------------|------|---------------------|--------------------------|
 E|-----------------|------|---------------------|--------------------------|

[C] [C7] [F] [D7]  
 
 e|----------|-----------|----------|------------------|--------------------|
 B|-------5h6|6/8---10---|---10--8--|------------------|----5---------------|
 G|4-----5---|--------9--|--9---9---|-------5-7b5------|--5---5-------------|
 D|-----5----|-----------|----------|----/7---------6-5|4-------------------|
 A|----------|-----------|----------|------------------|--------------------|
 E|----------|-----------|----------|------------------|--------------------|

[C] [Am] [C] [F]  
 
 e|-------------------|--------------------|-------------|------------------|
 B|-------5-6-5-------|----------------5/8-|-8/-10-------|------------------|
 G|------5-------7--5-|-5----h7--5----5----|------9--9-7-|-5----h7-5--------|
 D|-----5-------------|--------------5-----|-------------|------------------|
 A|-------------------|--------------------|-------------|------------------|
 E|-------------------|--------------------|-------------|------------------|

[C/G] [G] [Dm] [G] [C] [Am] [F]  
 
 e|------------------|---------------|--------------|------------------|----|
 B|----3h5-6-5-3-----|-3h5p3-------8-|-6---5--------|------5-6-5-------|----|
 G|----5---5-----5---|-4---4---------|-------7----5-|-7b---------7-5-4-|----|
 D|------------------|---------------|--------------|------------------|-7--|
 A|------------------|---------------|--------------|------------------|----|
 E|------------------|---------------|--------------|------------------|----|

[F]  
You may think love is hard enough
Y[C]ou may never get to rehearse[C/G] [F]
And you can do without this stuff
M[C/G]aking everything w[G]orse
She's just the same as y[C]ou
She needs your love just l[Dm]ike you want her t[G]o
You c[C]an't go playing poker
With a p[C7]istol in your sleeve
You c[F]an't make somebody love you
By thr[D7]eatening to leave
If you w[C]ant a love forever, number [Am]one
If you w[C]ant a love forever, number [F]one
If you w[C/G]ant a love forever, number [G]one
Nobody's got the g[Dm]un[G]
Nobody's got the g[C]un[G]
Yes if y[C]ou want a love forever, num[Am]ber one
If you w[C]ant a love forever, number [F]one
If you w[C/G]ant a love forever, number [G]one
Nobody's got the g[Dm]un[G]
Nobody's got the g[C]un[G]
Outro Solo:
[C] [Am] [C] [F]  
 
 e|-------|----------------|-----------|--------------------|---------------|
 B|-------|-5----6-5-------|-------5/8-|8/10----------------|---------------|
 G|---5-7-|----5-----7-5-7-|-5----5----|-----9------7---h9p\|5---h7--5------|
 D|-5-----|--5-------------|-----5-----|--------------------|---------------|
 A|-------|----------------|-----------|--------------------|---------------|
 E|-------|----------------|-----------|--------------------|---------------|

[C/G] [G] [Dm] [G] [C] [G] [C]  
 
 e|-------------|-----------|---------|---------------------|---------------|
 B|-------5-6-5-|-6p5-----6-|---8-----|---5-6--8------------|---5-6-6-5-----|
 G|----7b-------|----7----5-|---7-----|--5--------7----5-7b-|------------7--|
 D|--5----------|-----------|---------|-5---------5---------|---------------|
 A|-------------|-----------|---------|---------------------|---------------|
 E|-------------|-----------|---------|---------------------|---------------|

[Am] [C] [F] [C/G] [G]  
 
 e|------------|-----------------|----------|-----------------|-------------|
 B|--------5/8-|-8/10------------|----------|--3-5/6-6--5-3---|-3h5p3-3-3-5-|
 G|--5----5----|--------7h9----7-|-5---7p5--|--5-----5------5-|-4-----4-----|
 D|------5-----|--------10-------|----------|-----------------|-------------|
 A|------------|-----------------|----------|-----------------|-------------|
 E|------------|-----------------|----------|-----------------|-------------|

[Dm] [G] [C] [G] [C] [Am] [C]  
 
 e|------------|------------|---------------|-----|-------------------------|
 B|-6--6---5-6-|--5-3---3---|----5-5-5-5--5-|-5---|-5-----8---8--------12---|
 G|-7--4-------|-5----5-4---|---5--7-7-7--7-|-5---|-5--/9---9-----9---------|
 D|------------|5-------5---|--5---5-5-5--5-|-7---|-5-----------------------|
 A|------------|------------|---------------|-----|-------------------------|
 E|------------|------------|---------------|-----|-------------------------|

[F] [C/G] [G] [Dm] [G] [C] [G]  
 
 e|-------------|---8---8-7---------|-------------------|-------------------|
 B|-10---8p6h8--|-----8-----10-8-8--|---10-12-13-12--13-|-------------------|
 G|-------------|-------------------|--10--------12--12-|---------------12--|
 D|-------------|-------------------|-10---------12-----|-------------------|
 A|-------------|-------------------|-------------------|-------------------|
 E|-------------|-------------------|-------------------|-------------------|

[C] [Am] [C] [F]  
 
 e|-----15-12--8-----10-|-8--------|-10-13-12-10----10-------|--------------|
 B|--15----------8------|---12-10--|-------------13----13-12-|-10--12--13---|
 G|----------------9----|----------|-------------------------|---------14---|
 D|---------------------|----------|-------------------------|--------------|
 A|---------------------|----------|-------------------------|--------------|
 E|---------------------|----------|-------------------------|--------------|

[C/G] [G] [Dm] [C] [G]  
 
 e|---8------------------|----------------------------|-10h12-10----10------|
 B|---8----10/12--10-----|----10-12-13-12-13-15-------|-13-------13-12------|
 G|--------10/12-----12--|---10--------12-12-16-------|------------------12-|
 D|----------------------|--10---------12-------------|---------------------|
 A|----------------------|----------------------------|---------------------|
 E|----------------------|----------------------------|---------------------|

[C] [Am] [C] [F]  
 
 e|----15-12--8-------10-8--7----|-10-13-12-10----10-------|----------------|
 B|-15----------8---8----10---10-|-------------13----13-12-|-10--12--13-----|
 G|---------------9------9-------|-------------------------|-10--12--14-----|
 D|------------------------------|-------------------------|----------------|
 A|------------------------------|-------------------------|----------------|
 E|------------------------------|-------------------------|----------------|

[C/G] [G] [Dm] [G] [C] [G]  
 
 e|---8------------------|----------------------------|-10h12-10h12p10----10------|
 B|---8----10/12--10-----|----10-12-13-12-13-15-------|-13-------------13-12------|
 G|--------10/12-----12--|---10--------12-12-16-------|---------------------------|
 D|----------------------|--10---------12-------------|---------------------------|
 A|----------------------|----------------------------|---------------------------|
 E|----------------------|----------------------------|---------------------------|


Important: The song above is NOT stored on the Chordie server. The original song is hosted at www.guitaretab.com. Chordie works as a search engine and provides on-the-fly formatting. Chordie does not index songs against artists'/composers' will. To remove this song please click here.

Text color:
Chord color:
Chord grids: 
Font size:    
Page size: 

Am C C/G C7 D7 Dm F Fadd9 G
Rate #1 of 1 versions

Login - add to songbook

SHARE PAGE  




You need to log in to post comments