Guitar Tabs, Chords and Lyrics
Server problems seems to be fixed. Chordie has been experiencing problems with songs disappearing. These issues now seems to be fixed, but still verifying the fix. If you find anything strange, please email admin@chordie.com.


Devil Baby  Mark Knopfler

Artist : Mark Knopfler
Title : Devil Baby
Album : The Ragpicker?s Dream
Date: 2006-02-11 22.38
Transcribed by Viktor Ivemo
comments/corrections to:
Iv3mo_@hotmail.com
Intro: D (Dsus2)
[D]The freaks'll stay together, they're a tight old cre[G]w
[A]You look at them and they look at yo[D]u
[D]I love the ballyhoo girl but she don't car[G]e
[G]It's hard to find love [A]anywhe[Bm]re
[G]Hard to find love a[A]nywher[D]e [A]
[D]The professor is the talker he's the talking ma[G]n
[A]And if he can't clean a midway nobody ca[D]n
[D]He'll get the tip on in from the midway mu[G]d
[G]You gotta have the sawdust i[A]n the bl[Bm]ood
[G]Gotta have the sawdust [A]in the b[D]lood [A]
[D]See the pig-faced man and the monkey gir[G]l
[A]Come see the big fat lad[D]y
[Bm]'Gator slim with the a[G]lligator skin
[A]Come see the devil bab[D]y
Solo: D, G, A, D, G, A, Bm, G, A, D, A
[D]Springer is the talker he's the talking ma[G]n
[A]He's got the whole studio eating out of his han[D]d
[D]You can be on too with the nuts and the g[G]eeks
[G]Call 1-800-[A]IMA FR[Bm]EAK
[G]1-800-IM[A]A FRE[D]AK [A]
[D]Be the pig-faced man or the monkey gir[G]l
[A]Come be the big fat lad[D]y
[Bm]'Gator slim with the [G]alligator skin
[A]Come be the devil bab[D]y
[D]Be the pig-faced man or the monkey gir[G]l
[A]Come be the big fat lady[D]
[Bm]'Gator slim with the [G]alligator skin
[A]Come be the devil baby[D]
P: Pull off
~: Que notes
S: Slide
Intro: (1st guitar plays this, 2nd guitar plays the chord)
 
 e |-----------2p0--2----------| x 4
 B |--------3------------------|
 G |-----2---------------------|
 D |--0------------------------|
 A |---------------------------|
 E |---------------------------|

On almost every ?Bm? and some other time Mark is playing this:
 
 e |-----------------------------|
 B |-----------------------------|
 G |---(11)--9s11--11--9s7--7----|
 D |-----------------------------|
 A |-----------------------------|
 E |-----------------------------|

The Chords
D play?s like this:
 
 e |-------------2---------------|
 B |-------------3---------------|
 G |--------2-------2------------|
 D |---0-~-----------------------|
 A |-----------------------------|
 E |-----------------------------|

G like this:
 
 e |--------------3--------------|
 B |--------------3--------------|
 G |--------0--------0-----------|
 D |-----------------------------|
 A |-----------------------------|
 E |----3-~----------------------|

A like this:
 
 e |-----------------------------|
 B |-------------2---------------|
 G |-------------2---------------|
 D |--------2--------2-----------|
 A |----0-~----------------------|
 E |-----------------------------|

And Bm like this:
 
 e |-----------------------------|
 B |--------------3--------------|
 G |--------------4--------------|
 D |---------4--------4----------|
 A |----2-~----------------------|
 E |-----------------------------|

Solo (I think the other guitar also jam?s along the solo, but i took out the
part Mr. Knopfler plays) :
 
 e |-------------5----------------------------------------------------------|
 B |-----s5---7-----8-8-8-----------8-8----8---7-7-7-----5s7----------------|
 G |-----------------------------7--------------------------------(7)-------|
 D |------------------------------------------------------------------------|
 A |------------------------------------------------------------------------|
 E |------------------------------------------------------------------------|
 e |------9--9----5s7~------------------------------------------------------|
 B |-------------------------10p8?10s12--------10----8--7-------------------|
 G |------------------------------------------------------------------------|
 D |------------------------------------------------------------------------|
 A |------------------------------------------------------------------------|
 E |------------------------------------------------------------------------|
 e |------------------------------------------------------------------------|
 B |------------------------------------------------------------------------|
 G |---(11)--9s11--9s7--------12--11---9s7s9s7-7s11-------------------------|
 D |------------------------------------------------------------------------|
 A |------------------------------------------------------------------------|
 E |------------------------------------------------------------------------|
 e |------------------------------------------------------------------------|
 B |------10p8p7----------------------12------------------------------------|
 G |----------------9?7s9------9s11~----------------------------------------|
 D |------------------------------------------------------------------------|
 A |------------------------------------------------------------------------|
 E |------------------------------------------------------------------------|


Important: The song above is NOT stored on the Chordie server. The original song is hosted at www.guitaretab.com. Chordie works as a search engine and provides on-the-fly formatting. Chordie does not index songs against artists'/composers' will. To remove this song please click here.

Text color:
Chord color:
Chord grids: 
Font size:    
Page size: 

A Bm D G
Rate #2 of 4 versions

Jango Player

Login - add to songbook

SHARE PAGE  




You need to log in to post comments