Guitar Tabs, Chords and Lyrics
Major upgrade!! After one year development the new version of Chordie is now online! Please give feedback.


She Will Be Loved  Maroon 5

Check out my video playing and singing this music: http://www.youtube.com/watch?v=ZmEoOhIznxE
Tom: D
Intro 2x: Bm A
[Bm] [A]  
 
 E|-----------------------------------------|
 B|---3-3-3-3------2-x-2-----2--------------|
 G|---4-4-4-4------2-x-2-2------------------|
 D|---4-4-4-4----2---x-2---2----------------|
 A|-2----------0-----x-0--------------------|
 E|-----------------------------------------|

[Bm] Beauty queen of [A]only eighteen
She [Bm] had some trouble w[A]ith herself
[Bm] He was always th[A]ere to help her
She [Bm] always belonged to s[A]omeone else
[Bm] I drove for m[A]iles and miles
And w[Bm]ound up at your d[A]oor
[Bm]I've had you s[A]o many times but
s[Bm]omehow I want m[A]ore
Pré-refrão e Refrão:
[D5(9)] [A5]  
 
 E|-----x-----0-x-------x-------x-----------|
 B|---3-x-----3-x-----2-x-----2-x-----------|
 G|---2-x---2---x-----2-x-----2-x-----------|
 D|-0---x-0-----x-0---2-x---2---x-----------|
 A|-------------x---0---x-0-----x-0---------|
 E|-----------------------------------------|

[Bm] [A]  
 
 E|-----------------------------------------|
 B|---3-x------3-x-----2-x-----2-x----------|
 G|---4-x------4-x-----2-x-----2-x----------|
 D|---4-x----4---x-----2-x---2---x----------|
 A|-2---x--2-----x-2-0---x-0-----x-0--------|
 E|-----------------------------------------|

[D5(9)] [A]  
 
 E|-----x-----0-x-------x-------x-----------|
 B|---3-x-----3-x-----2-x-----2-x-----------|
 G|---2-x---2---x-----2-x-----2-x-----------|
 D|-0---x-0-----x-0---2-x---2---x-----------|
 A|-------------x---0---x-0-----x-0---------|
 E|-----------------------------------------|

[Bm] [G]  
 
 E|-----------------------------------------|
 B|---3-x------3-x-----3--------------------|
 G|---4-x------4-x-----0--------------------|
 D|---4-x----4---x-----0--------------------|
 A|-2---x--2-----x-2------------------------|
 E|------------------3----------------------|

[D5(9)] I don't mind spending ev[A]eryday
[Bm]Out on your corner in the p[A]ouring rain
[D5(9)] Look for the girl with the br[A]oken smile
[Bm] Ask her if she wants to st[G]ay awhile
And she w[D5(9)]ill be l[A]oved
She w[Bm]ill be l[G]oved
[Bm] Tap on my window kn[A]ock on my door
[Bm]I want to make you feel b[A]eautiful
[Bm]I know I tend to g[A]et so insecure
[Bm]It doesn't matter [A]anymore
[Bm] It's not always r[A]ainbows and butterflies
It's compromise that moves us al[A]ong... yeah
[Bm] My heart is full and my d[A]oor's always open
You can c[Bm]ome anytime you w[A]ant
[D5(9)] I don't mind spending ev[A]eryday
[Bm]Out on your corner in the p[A]ouring rain
[D5(9)] Look for the girl with the br[A]oken smile
[Bm] Ask her if she wants to st[G]ay awhile
And she w[D5(9)]ill be l[A]oved
She w[Bm]ill be l[G]oved
[Bm] I know where you h[A]ide alone in your c[Bm]ar
Know all of the th[A]ings that make you who you [Bm]are
I know that goodb[A]ye means nothing at [Bm]all
Comes back and begs me to c[A]atch her every time
sheeee..[G]. falls, yeahhh...
[Bm] Tap on my window kn[A]ock on my door
[Bm]I want to make you feel b[A]eautiful
[D5(9)] I don't mind spending ev[A]eryday
[Bm]Out on your corner in the p[A]ouring rain
[D5(9)] Look for the girl with the br[A]oken smile
[Bm] Ask her if she wants to st[G]ay awhile
And she w[D5(9)]ill be l[A]oved
She w[Bm]ill be l[G]oved

Important: The song above is NOT stored on the Chordie server. The original song is hosted at www.guitaretab.com. Chordie works as a search engine and provides on-the-fly formatting. Chordie does not index songs against artists'/composers' will. To remove this song please click here.

Text color:
Chord color:
Chord grids: 
Font size:    
Page size: 

A A5 Bm G
Rate #2 of 22 versions

Login - add to songbook

SHARE PAGE  




You need to log in to post comments