Guitar Tabs, Chords and Lyrics
Server problems seems to be fixed. Chordie has been experiencing problems with songs disappearing. These issues now seems to be fixed, but still verifying the fix. If you find anything strange, please email admin@chordie.com.


Dream Lover  The Marshall Tucker Band

The Marshall Tucker Band
>From the Album-"Together Forever"
1978
Written by George McCorkle/Jerry Eubanks
Tabbed by Ray Scheidler
Chords:
[Em] [F#m] [Em7] [Am] [Am/G#] [Am/G] [D9] [G] [D] [A]  
 
 E|------2---3---0----5-----5-----5---3---2---0--|
 B|--0---2---3---1----5-----5-----5---0---3---2--|
 G|--0---2---4---2----5-----5-----5---0---2---2--|
 D|--2---2---2---2----6-----5-----4---0---0---2--|
 A|--2----------------------------5---2-------0--|
 E|-----------------------------------3----------|

Intro:
[Em] [F#m] [Em7] [F#m] [Em]  
 
 E|--------0--2--2----0--2--3--5--3--2--5--2--0--|
 B|--0--3----------------------------------------|
 G|--0-------------------------------------------|
 D|----------------------------------------------|
 A|----------------------------------------------|
 E|----------------------------------------------|

[Em] [F#m] [Em]  
 
 E-------------------0--------------------------
 B--------0----3--------------------------------
 G--2----------------------2--------------------
 D---------------------------------2------------
 A---------------------------------2------------
 E----------------------------------------------

[Em]Was a [F#m]time when f[Em7]riends of [F#m]mine
Said l[Em]ove w[F#m]as just a g[Em]ame
Find a [F#m]girl and just [Em7]give her a [F#m]whirl
And [Em]move on[F#m] all the s[Em]ame
[Am]But I was [Am/G#]never happy
[Am/G]Always searching f[D9]or the one
[Am]The dream to[Am/G#] be my lover
[Am/G]And the dream that
[D9]we would have a [Em]son[F#m] [Em7] [F#m] [Em] [F#m] [Em]
I've s[Em]earched this w[F#m]hole world [Em7]over
[F#m]'Bout a h[Em]undred [F#m]times or [Em]more
Always l[F#m]ooking for[Em7] the girl
[F#m]That I could [Em]love fo[F#m]reverm[Em]ore
[Am]Dream lady [Am/G#]sexy Sadie
[Am/G]Oh I've dreamed all my l[D9]ife of you
[Am]Dream lover the[Am/G#]re's no other
[Am]Oh girl you could [D9]make
All my dreams come t[Em]rue[F#m] [Em7] [F#m] [Em] [F#m] [Em]
[G]Dream lover oh wh[D]ere are you
[A]If I could find you I'd l[Em]ove you true
[G]Dream lover you're [D]in my mind
[A]Oh lord why does love
Have to be so unk[Em]ind[F#m] [Em7] [F#m] [Em] [F#m] [Em]
Solo: Em F#m Em7 F#m Em F#m Em
[Am] [Am/G#] [Am/G] [D9]  
[Em] [F#m] [Em7] [F#m] [Em] [F#m] [Em]  
[Am]But I found a gi[Am/G#]rl worth loving
[Am/G]One to share my ho[D9]pes and dreams
[Am]A friend to sta[Am/G#]nd beside me
[Am/G]And to be the l[D9]over of my dr[Em]eam[F#m]s[Em7] [F#m] [Em] [F#m] [Em]
[G]Dream lover oh wh[D]ere are you
[A]If I could find you I'd l[Em]ove you true
[G]Dream lover you're [D]in my mind
[A]Oh lord why does love
Have to be so un[Em]kin[F#m]d[Em7] [Em] [Em] [F#m] [Em]
Outro: Em F#m Em7 F#m w/ad lib "Dream Lover" lyrics

Important: The song above is NOT stored on the Chordie server. The original song is hosted at www.guitaretab.com. Chordie works as a search engine and provides on-the-fly formatting. Chordie does not index songs against artists'/composers' will. To remove this song please click here.

Text color:
Chord color:
Chord grids: 
Font size:    
Page size: 

A Am Am/G# D D9 Em Em7 F#m G
Rate #3 of 4 versions

Jango Player

Login - add to songbook

SHARE PAGE  




You need to log in to post comments