Guitar Tabs, Chords and Lyrics
Server problems seems to be fixed. Chordie has been experiencing problems with songs disappearing. These issues now seems to be fixed, but still verifying the fix. If you find anything strange, please email admin@chordie.com.


Everybody Needs Somebody  The Marshall Tucker Band

Band: Marshall Tucker Band
Album: Together Forever (1978)
Song: Everybody Needs Somebody
b= bend
r= return
h= hammer on
p= pull off
 
 e---------------------|-----------------------|----------------------|
 B---------------------|-----------------------|----------------------|
 G-9b--9--7---9b-7-9-7-|-9b--9--7---9b-7---7-7-|-7--9--9b--7--9--9br~-|
 D----------9----------|----------9------9-----|----------------------|
 A---------------------|-----------------------|----------------------|
 E---------------------|-----------------------|----------------------|
 e-----------------------|
 B-----------------------|
 G-7-9-9b---7---7--------|
 D------------9------9-9-|
 A-----------------------|
 E-----------------------|

Here are the chords that are used for this song...
[D] [D+] [G] [Bm] [F#m7] [Em7] [A] [G6+]  
 
 e--2----2----3----2----2---------0----0---|
 B--3----3----0----3----2----3----2----0---|
 G--2----3----0----4----2----0----2----0---|
 D--0---------0----4----2----2----2----0---|
 A------------2--------------2-------------|
 E------------3----------------------------|

(Verse)
[D] Listening for a faint sound
[D+] Gazing out the window I see
[G] Winds blowing clouds
[D] Wish they were taking me
A lonesome song.[D+]..on the radio
[G] Reminds me of [D]where I'd like to be
(CHORUS)
[Bm] Everybody[F#m7] needs somebody
[G] To help them make it through [D]life
[F#m7] Arms to hold,[G] words to soothe
[Em7] Someone to say that it's al[A]right
(Verse)
[D] Too many miles of road,[D+] I really can't complain
[G] Lovely hotel rooms are [D]driving me insane
My life's a hard life,[D+] wouldn't have it any other way
[G] Someday darling, I'll be [D]coming home to stay
(CHORUS)
[Bm] Everybody[F#m7] needs somebody
[G] To help them make it through [D]life
[F#m7] Arms to hold,[G] words to soothe
[Em7] Someone to say that it's al[A]right
CHORDS FOR GUITAR SOLO: D G6+ D+ D D G6+ D+ D D D+ G D
[D] [D+] [G] [D] [Bm] [F#m7] [G] [D] [F#m7] [G] [Em7] [A] 
(Verse)
[D] Songs of the highway,[D+] one night stands
[G] It can take its toll on [D]any kind of man
[D] Lord, I miss you[D+] and I ain't ashamed to say
[G] Someday darling, I'll be [D]coming home to stay
(CHORUS)
[Bm] Everybody[F#m7] needs somebody
[G] To help them make it through [D]life
[F#m7] Arms to hold,[G] words to soothe
[Em7] Someone to say that it's al[A]right
Outro:
 
 e---------------------|----------------14-15-17-15-14-15-14--------------|
 B---------------------|-17b--17--15-17----------------------17----15-17b-|
 G-9b--9--7---9b-7-9-7-|----------------------------------------16--------|
 D----------9----------|--------------------------------------------------|
 A---------------------|--------------------------------------------------|
 E---------------------|--------------------------------------------------|


Important: The song above is NOT stored on the Chordie server. The original song is hosted at www.guitaretab.com. Chordie works as a search engine and provides on-the-fly formatting. Chordie does not index songs against artists'/composers' will. To remove this song please click here.

Text color:
Chord color:
Chord grids: 
Font size:    
Page size: 

A Bm D D+ Em7 F#m7 G G6+
Rate #1 of 4 versions

Login - add to songbook

SHARE PAGE  



You need to log in to post comments