Guitar Tabs, Chords and Lyrics
Server problems seems to be fixed. Chordie has been experiencing problems with songs disappearing. These issues now seems to be fixed, but still verifying the fix. If you find anything strange, please email admin@chordie.com.


You Don't Live Forever  The Marshall Tucker Band

You Don't Live Forever
The Marshall Tucker Band
>From the Album-"Long Hard Ride"
[1976]Written by Tommy Caldwell
Tabbed by Ray Scheidler
Chords:
[D] [Dm7] [C] [G]  
 
 E------2------1-------------3----------------|
 B------3------1------1------0----------------|
 G------2------2------0------0----------------|
 D------0------0------2------0----------------|
 A--------------------3------2----------------|
 E---------------------------3----------------|

Intro/Ending:
[D] [Dm7]  
 
 E---0----2---------2-------0----2---------1--|
 B------------3-----3-----------------3----1--|
 G--------------------------------------------|
 D--------------------------------------------|
 A--------------------------------------------|
 E--------------------------------------------|

I had a l[D]over prettiest th[C]in[G]g I ever s[D]een
Just like all good things
There was a d[C]ay[G] she went aw[D]ay
Had the best mother that a man could have
And my f[C]amily[G] underst[D]ands
When I see Daddy my Daddy say to mys[C]elf[G]
He's a hell of a m[D]an
So I'm s[D]ittin' here thinkin' about
How we used to b[C]e [G]tog[D]ether
And it's a lonesome road
Even I tell you that you d[C]on't[G] live for[D]ever
No you d[C]on't[G] live for[D]ever
[C]Li[G]sten to me b[C]ab[G]y
[C]Wh[G]at I'm tryin' to s[D]ay
[C]I [G]can't underst[C]and i[G]t
[C]Wh[G]en you treat me this w[D]ay[Dm7] [D] [Dm7] [D] [(Dm7)]

Important: The song above is NOT stored on the Chordie server. The original song is hosted at www.guitaretab.com. Chordie works as a search engine and provides on-the-fly formatting. Chordie does not index songs against artists'/composers' will. To remove this song please click here.

Text color:
Chord color:
Chord grids: 
Font size:    
Page size: 

C D Dm7 G
Rate #1 of 2 versions

Login - add to songbook

SHARE PAGE  




You need to log in to post comments