Guitar Tabs, Chords and Lyrics
Major upgrade!! After one year development the new version of Chordie is now online! Please give feedback.


Beautiful Again  Martina McBride

SONG: BEAUTIFUL AGAIN
ARTIST: MARTINA McBRIDE
TAB BY: DON CZARSKI
EMAIL: GUITARZAN7@HOTMAIL.COM
BEAUTIFUL AGAIN
MARTINA McBRIDE
CAPO: 3rd FRET
INTRO: PLAY 2x's
 
 E ---------------3----|
 B -----------------3--|
 G -0--2-4-5-4--0------|
 D --------------------|
 A --------------------|
 E --------------------|

VERSE:
[Am7]She was only t[G]en when her [C]daddy got [G/B]fired
He d[Am7]rank away the f[G]amily h[C]ome and [G/B]left them all al[Am7]one
And then her m[G]ommy was j[C]ust too t[G/B]ired
[Am7]She got sent aw[C]ay
 
 E -0---------------|
 B ---3-1-0---------|
 G ---------2--0-2--|
 D -----------------|
 A -----------------|
 E -----------------|

VERSE:
She m[Am7]oved in with her a[G]unt in [C]Ari[G/B]zona
E[Am7]verything was f[G]ine unt[C]il she t[G/B]old on Uncle [Am7]Bill
When he s[G]aid he only w[C]anted to [G/B]hold her
[Am7]She had to run aw[C]ay
 
 E -0------------------------|
 B ---3-1-0--------0---------|
 G ---------2--0-2---2-0-----|
 D -----------------------2--|
 A --------------------------|
 E --------------------------|

CHORUS:
[Am7]But when it r[G]ains
[C]The past gets w[G/B]ashed away, and t[Am7]hen
She smiles 'cause s[G]he knows in the e[C]nd
The wo[C]rld gets beautiful,
C (N.C.) (G)
Beautiful again
PLAY INTRO RIFF - 2x's
 
 E ---------------3----|
 B -----------------3--|
 G -0--2-4-5-4--0------|
 D --------------------|
 A --------------------|
 E --------------------|

VERSE:
Her [Am7]boyfriend said I'm w[G]ay too y[C]oung to get mar[G/B]ried
But [Am7]she made up her m[G]ind that so[C]mehow [G/B]she was gonna
[Am7]Find a way to [G]keep that ba[C]by she car[G/B]ried
And [Am7]he just walked [C]away
 
 E -0----------------0----|
 B ---3-1-0----0-1-3---3--|
 G ---------2-------------|
 D -----------------------|
 A -----------------------|
 E -----------------------|

CHORUS:
[Am7]But when it r[G]ains
[C]The past gets w[G/B]ashed away, and t[Am7]hen
She smiles 'cause s[G]he knows in the e[C]nd
The wo[C]rld gets beautiful,
Beautiful ag[G]ain
INSTRUMENTAL:
[C] [G/B] [Am7] [G] [C] [G/B] [Am7]  
BREAK:
And when she's lying [Am7]all alo[G]ne
T[C]hinkin' about her l[G/B]ife she wonders
If [Am7]she is wr[G]ong to bel[C]ieve in a better w[G/B]orld
Then she s[Am7]ees her little g[G]irl
And she kn[C]ows she is r[G/B]ight[D]
CHORUS:
[Am7]But when it r[G]ains
[C]The past gets w[G/B]ashed away, and t[Am7]hen
She smiles 'cause s[G]he knows in the e[C]nd
The wo[C]rld gets beautiful, (The world gets beautiful)
Beautiful ag[G]ain yeah, yeah
OUTRO:
 
 E ---------------3----|
 B -----------------3--|
 G -0--2-4-5-4--0------|
 D --------------------|
 A --------------------|
 E --------------------|
 E ---------------3----|
 B -----------------3--|
 G -0--2-4-5-4--0------|
 D --------------------|
 A --------------------|
 E --------------------|
 E ------------------|
 B ------------------|
 G -0--2-4-5-4-2-0---|
 D ------------------|
 A ------------------|
 E ------------------|

CHORDS USED:
G C G/B or G/B Am7
 
 E --3----0----3------x----0--|
 B --0----1----3------0----1--|
 G --0----0----0------0----0--|
 D --0----2----0------0----2--|
 A --2----3----2------2----0--|
 E --3----0----0------x----0--|


Important: The song above is NOT stored on the Chordie server. The original song is hosted at www.guitaretab.com. Chordie works as a search engine and provides on-the-fly formatting. Chordie does not index songs against artists'/composers' will. To remove this song please click here.

Text color:
Chord color:
Chord grids: 
Font size:    
Page size: 

Am7 C D G G/B
Rate #1 of 2 versions

Login - add to songbook

SHARE PAGE  




You need to log in to post comments