Guitar Tabs, Chords and Lyrics
Server problems seems to be fixed. Chordie has been experiencing problems with songs disappearing. These issues now seems to be fixed, but still verifying the fix. If you find anything strange, please email admin@chordie.com.


Summer Dress  Mason Jennings

Tabbed by: Taylor Sansom
Intro Main Riff (C*)
 
 e|------3--------0------3-----0-------------------------------------------|
 B|----5--------4------5-----4-----------------1---1---1---1----1-1--------|
 G|-------------------------------------------------------------0-0--------|
 D|----------------------------------------------4---3---2-----------------|
 A|------------------------------------------3---------------3-------------|
 E|-3-----3-3--------3-----3-----------------------------------------------|

C C*
Dark clouds coming, honey we go to the sea
F C*
Dark clouds coming, honey we go to the sea
[F]Dark clouds coming, honey we go to the [C]sea
[C]Slip out the back door and leave our cars
G F C*
Leave everybody inside wondering where we are
C C*
Pull you in close, lay you naked down on your back
F C*
Pull you in close, lay you naked down on your back
[F]Pull you in close, lay you naked down on your [C]back
[C]Oh, life has been good to me
G F C*
Turn a little phrase and give you my sympathy
Solo
 
 e|---0-------------0--0--3p1p0-------1---------1-----1---------1----------|
 B|---1--3-4-5-3/1--1--1--------3-1---1-1-3b-1--1-----1-1-3b-1--1----------|
 G|---0-------------0--0--------------2---------2-----2---------2----------|
 D|---2--3-4-5------2--2--------------3---------3-----3---------3----------|
 A|-3-------------3----3--------------3---------3-----3---------3----------|
 E|---------------------------------1-----------1---1-----------1----------|
 e|---0-0-0-3p1p0--------0-0-0-------------3----1--------------------------|
 B|---1-1-1-------3-1----1-1-1-3/5-3-1p0---0----1----1---1---1---1----1-1--|
 G|---0-0-0--------------0-0-0-------------0----2---------------------0-0--|
 D|---2-2-2--------------2-2-2-------------0----3------4---3---2-----------|
 A|-3---3-3------------3---3-3-------------2----3--3---------------3-------|
 E|--------------------------------------3----1----------------------------|

C C*
Waited for the rain and the rain it finally came
F C*
Waited for the rain and the rain it finally came
[F]We waited for the rain and the rain it finally [C]came
[C]And came, and came oh yes
G F C*
My compliments to a brand new summer dress
Couldn't get his entire solo so I tabbed out what I play when I play this song, still
good and pretty close. Enjoy!

Important: The song above is NOT stored on the Chordie server. The original song is hosted at www.guitaretab.com. Chordie works as a search engine and provides on-the-fly formatting. Chordie does not index songs against artists'/composers' will. To remove this song please click here.

Text color:
Chord color:
Chord grids: 
Font size:    
Page size: 

C F
Rate #1 of 2 versions

Jango Player

Login - add to songbook

SHARE PAGE  




You need to log in to post comments