Guitar Tabs, Chords and Lyrics
Server problems seems to be fixed. Chordie has been experiencing problems with songs disappearing. These issues now seems to be fixed, but still verifying the fix. If you find anything strange, please email admin@chordie.com.


Blood Of Man  Mason Jennings

 
 -----------------------------------------------------------------------------

BLOOD OF MAN - Mason Jennings
 
 -----------------------------------------------------------------------------

Tabbed by:cheepnis
Intro:
 
 e|-------7--6-7--9--7-6-----------------6---------------------------|
 B|-----7----------------------------------9-7-9-----7---------------|
 G|-8-9------------------8-9-6-----6-8-9---------8-9-----------------|
 D|------------------------------------------------------------------|
 A|------------------------------------------------------------------|
 E|------------------------------------------------------------------|
 e|-------7--6-7--9--7-6-----------------6---------------------------|
 B|-----7----------------------------------9-7-9-7-------------------|
 G|-8-9------------------8-9-6-----6-8-9-----------8-9---------------|
 D|------------------------------------------------------------------|
 A|------------------------------------------------------------------|
 E|------------------------------------------------------------------|

high in the [B]hills there's an angel and a [F#]ghost in chains
here in your arms, there's desert where it [B]always rains
as your [D#m]legs begin to [C#M]spread
how I [G#]wish I wasn't [F#]dead
B(?) F# B
standing backwards to the blood of man
INTRO AGAIN
baby's [B]enjoy luxury cars seasons that [F#]don't come true true
happiness waits out by the gate watching each [B]thing we do
ocean [D#m]mother, ocean [C#m]child,
are you min[G#]e, or are you [F#]wild?
are you cal[B]ling for the b[F#]lood of m[B]an?
[D#m]I'll keep my dreams in the [C#m]river tonight
under the [D#m]rocks and stone they will [B]be alright
I'll [D#m]hide my dreams in the [C#m]river tonight
under the [D#m]rocks and moss, there they'll [B]be alright
[D#m]where did you go, oh [B]please come back
I [C#m]miss you so [F#]oh, oh
[D#m]where did you go, oh [B]please come back
I [C#m]miss you so, [F#]oh, oh
ocean [D#m]mother ocean [C#m]child,
are you [D#m]mine, or are you [G#]wild
are you [B]calling for the [F#]blood of [B]man?

Important: The song above is NOT stored on the Chordie server. The original song is hosted at www.guitaretab.com. Chordie works as a search engine and provides on-the-fly formatting. Chordie does not index songs against artists'/composers' will. To remove this song please click here.

Text color:
Chord color:
Chord grids: 
Font size:    
Page size: 

B C#m C#m D#m F# G#
Rate #1 of 2 versions

Jango Player

Login - add to songbook

SHARE PAGE  




You need to log in to post comments