Guitar Tabs, Chords and Lyrics
Server problems seems to be fixed. Chordie has been experiencing problems with songs disappearing. These issues now seems to be fixed, but still verifying the fix. If you find anything strange, please email admin@chordie.com.


Lemon Grove Avenue  Mason Jennings

 
 -----------------------------------------------------------------------------

Lemon Grove Avenue - Mason Jennings
 
 -----------------------------------------------------------------------------

Tabbed by: beaverbrun
Email: beaverbrun@yahoo.com
Tuning: Half Step Down
INTRO / BETWEEN VERSES
 
 e|----------------------------------------------------------------------------|
 B|----------------------------------------------------------------------------|
 G|----------------------------------------------------------------------------|
 D|--9---9---11s9----------------9---9-----------------------------------------|
 A|--7---7-------11--9--7--9s11 -11--11---9--7---------------------------------|
 E|--0---0-----------------0-----0---0----------9--0----REPEAT-x-3-------------|

VERSE CHORDS
If I have my w[A]ay, I'm never going to leave Lemon Grove Ave[E]nue
Where the summer bre[A]eze, blows through the windows in the after[E]noon
And all the st[B]ars come out at ni[E]ght, and there's a b[B]oat out on the s[E]ea
And there's a bi[B]rd up in my tr[E]ee, and there's a fe[B]eling in my he[E]art
I can't exp[A]lain, I'm coming [E]home, I'm coming h[B]ome
Yea
 
 e|--0000-0000-0000-0000---------0------------0-------------------------------|
 B|--1111-2222-3333-4444-5p4--0--0------------0-------------------------------|
 G|------------------------------1------------1-------------------------------|
 D|------------------------------2----6s4--2--2-------------------------------|
 A|------------------------------2------------2-------------------------------|
 E|------------------------------0------------0-------------------------------|

REPEAT INTRO AND VERSE
YEA (AFTER SECOND VERSE)
 
 e|--0000-0000-0000-0000---------0------------0--------------------------------|
 B|--1111-2222-3333-4444-5p4--0--0------------0--------------------------------|
 G|------------------------------1------------1--------------------------------|
 D|------------------------------2----6s4--2--2--------------------------------|
 A|------------------------------2------------2--------------------------------|
 E|------------------------------0------------0--2222-3333-4444-5555-----------|
 e|-----------0-----------0---------------------------------------------------|
 B|-----------0-----------0---------------------------------------------------|
 G|-----------1-----------1---------------------------------------------------|
 D|-----------2-----------2---------------------------------------------------|
 A|-----------2-----------2---------------------------------------------------|
 E|---4s2--0--0---4s2--0--0---------------------------------------------------|

BREAKDOWN
 
 e|---------------------------------------------------------------------------|
 B|---------------------------------------------------------------------------|
 G|---------------------------------------------------------------------------|
 D|---9--9--11--9--5--7--5--5--9----------------------------------------------|
 A|---7------------------------9--9h11--9------7------7-----------------------|
 E|---0------------------------------------7h9----7h9----REPEAT-x-2-----------|

Y[E]ea, I'm on my w[C]ay, I'm on my w[B]ay[A]
Y[E]ea, I'm on my w[C]ay, I'm on my w[B]ay[A]
Y[E]ea, I'm on my w[C]ay, I'm on my w[B]ay[A]
Y[E]ea, I'm on my w[C]ay, I'm on my w[B]ay
 
 e|-------------------0000-0000-0000-0000---0---------------------------------|
 B|-------------------1111-2222-3333-4444---0---------------------------------|
 G|-----------------------------------------1---------------------------------|
 D|--2-0------------------------------------2---------------------------------|
 A|------2-0--------------------------------2---------------------------------|
 E|----------4-3-2-0------------------------0---------------------------------|

If I have my w[A]ay, I'm never going to leave Lemon Grove Ave[E]nue
Where the summer bre[A]eze, blows through the windows in the after[E]noon
And all the st[B]ars come out at ni[E]ght, and there's a b[B]oat out on the s[E]ea
And there's a bi[B]rd up in my tr[E]ee, and there's a fe[B]eling in my he[E]art
I can't exp[A]lain, I'm coming [E]home, I'm coming h[B]ome
YEA
 
 e|--0000-0000-0000-0000---------0------------0--------------------------------|
 B|--1111-2222-3333-4444-5p4--0--0------------0--------------------------------|
 G|------------------------------1------------1--------------------------------|
 D|------------------------------2----6s4--2--2--------------------------------|
 A|------------------------------2------------2--------------------------------|
 E|------------------------------0------------0--2222-3333-4444-5555-----------|
 e|-----------0-----------0---------------------------------------------------|
 B|-----------0-----------0---------------------------------------------------|
 G|-----------1-----------1---------------------------------------------------|
 D|-----------2-----------2---------------------------------------------------|
 A|-----------2-----------2---------------------------------------------------|
 E|---4s2--0--0---4s2--0--0---------------------------------------------------|

enjoy
************************************
| / slide up
| \ slide down
| h hammer-on
| p pull-off
| ~ vibrato
| + harmonic
| x Mute note
| b Bend
| pb Pre-bend
| br Bend release
| pbr Pre-bend release
| brb Bend release bend
************************************

Important: The song above is NOT stored on the Chordie server. The original song is hosted at www.guitaretab.com. Chordie works as a search engine and provides on-the-fly formatting. Chordie does not index songs against artists'/composers' will. To remove this song please click here.

Text color:
Chord color:
Chord grids: 
Font size:    
Page size: 

A B C E
Rate #1 of 2 versions

Login - add to songbook

SHARE PAGE  



You need to log in to post comments