Guitar Tabs, Chords and Lyrics
Major upgrade!! After one year development the new version of Chordie is now online! Please give feedback.


Empire Builder  Mason Jennings

by mason jennings
tabbed by gavin wahl-stephens
album: use your voice
tune half step down
Intro
 
 --------2----------------|
 --------2------------0---|
 --------0--------0-3-----|
 --------0--0-3-4---------|
 -------------------------|
 --3--3-------------------|

fill 1
 
 -------------------------|
 -------------------------|
 -------------------------|
 -------------------------|
 -------------------------|
 --x-3-x-2-x-0------------|

fill 2
 
 --3--5-6-7-6-5-----------|
 -------------------------|
 -------------------------|
 -------------------------|
 -------------------------|
 -------------------------|

Chorus
B Em(barre)
 
 ----x-------x-------x-------x------------------------------------|
 ----4-x-x-x-4-x-x-x-4-x-x-x-4-------8-x-x-x-8-x-x-x-8-x-x-x-8----|
 ----4-x-x-x-4-x-x-x-4-x-x-x-4-------9-x-x-x-9-x-x-x-9-x-x-x-9----|
 ----4-x-x-x-4-x-x-x-4-x-x-x-4-------9-x-x-x-9-x-x-x-9-x-x-x-9----|
 -2--2-------2-------2-------2----7--7-------7-------7-------7----|
 -----------------------------------------------------------------|

1.I'm always thinking of you
2.Staring railway line
3.One sweet day I will..
End of chorus
__________________________________1,2,3 4____________________________
[/] [/] [/]  
 
 ----x-------x-----------------x------- -------------------------------|
 ----4-x-x-x-4-x-x-x---5-x-x-x-5------- ----7--------------------------|
 ----4-x-x-x-4-x-x-x---5-x-x-x-5------- ----7--------------------------|
 ----4-x-x-x-4-x-x-x?--5-x-x-x-5------- ----7--------------------------|
 2--2-------2-------3-3-------3-------- --5-5--------------------------|
 -------------------------------------- -------------------------------|

1.I'll swing the hammer
2. Empire builder brings me home.
Verse
[G]All day every d[Am]ay, I swing the [D7]hammer to the metal on the [G]northern railway.
(fill 1)
[Em]Always a movie playing in [Am]my head.
D7 G (fill 12)
A million movie stars and you me
[G]Moonshine [Am]every night
D7 G (fill 1)
Eating supper by the fire out in the clear moonlight
[Em]Ankles crossed, [Am]hands behind my head
Telling [D7]stories, singing songs about the wes[G]t
Intro 4x
Verse
Chorus
Intro 4x
Verse
Chorus
Intro 3x
Outro
Outro
 
 --------2---------------------3-|
 --------2------------0--------3-|
 --------0--------0-3---0------0-|
 --------0--0-3-4---------2-0--0-|
 ------------------------------2-|
 --3--3------------------------3-|

G-320033
Am-x01220
D7-xx0212
Em-022000
B- x2444x
Em Barre-x7998x
C barre-x3555x
D barre-x5777x

Important: The song above is NOT stored on the Chordie server. The original song is hosted at www.guitaretab.com. Chordie works as a search engine and provides on-the-fly formatting. Chordie does not index songs against artists'/composers' will. To remove this song please click here.

Text color:
Chord color:
Chord grids: 
Font size:    
Page size: 

Am D7 Em G
Rate #1 of 3 versions

Jango Player

Login - add to songbook

SHARE PAGE  



You need to log in to post comments