Guitar Tabs, Chords and Lyrics
Server problems seems to be fixed. Chordie has been experiencing problems with songs disappearing. These issues now seems to be fixed, but still verifying the fix. If you find anything strange, please email admin@chordie.com.


Which Way Your Heart Will Go  Mason Jennings

"Which Way Your Heart Will Go" By Mason Jennings
**Tune Down 1/2 Step**
Fingerpicking Pattern:
[Bm] [A]  
 
 eb-----------------------------------------|
 Bb---3--------2---------0----------0-------|
 Gb-----4--------2---------0----------0-----|
 Db-------4--------2---------0----------2---|
 Ab-2--------0------------------------------|
 Eb-------------------3---------0-----------|
 -----2--------------------------------------|
 -------3--------2-----------0---------------|
 ---------2--------2-----------0--------0----|
 -0------------------2-----------0-----------|
 -------------0----------------------------0-|
 -------------------------3----------3-------| Repeat

Verse:
[Bm]Little [A]airplane [G]in the s[Em]ky
[D]You p[A]oint up a[G]t it
[Bm]I watch your f[A]ace as you [G]watch it go [Em]by
D A G (walk down to Em)
Everything is perfect
Chorus:
[Em]Where would I [A]be right now
[D]If all my d[A]reams had come [G]true
[Em]Deep down I k[A]now somehow
[D]I'd[A] have never s[G]een your [Em]face
[D]This [A]world would be a d[G]ifferent [Em]place
[D]Darl[A]ing, there's no w[G]ay to k[Em]now
Which way your he[G]art will go
Intro repeat (one time through chord progression)
Summer sun on a sandy slide
Silver swingsets shining
How can life feel so alive
And still feel like dying
Chorus
Intro repeat (two times through)
A stack of books beside our bed
Living out of boxes
Why does the empty space fill with dread
Why does change still shock us
Chorus:
Where would we be right now
If all our dreams had come true
Deep down I know somehow
I'd have never seen your face
This world would be a different place
Darling, there's no way to know
[A]Which way your [G]heart will [Em]go
[A]Which way your [G]heart will [Em]go
End: D G6 D

Important: The song above is NOT stored on the Chordie server. The original song is hosted at www.guitaretab.com. Chordie works as a search engine and provides on-the-fly formatting. Chordie does not index songs against artists'/composers' will. To remove this song please click here.

Text color:
Chord color:
Chord grids: 
Font size:    
Page size: 

A Bm D Em G
Rate #1 of 3 versions

Login - add to songbook

SHARE PAGE  




You need to log in to post comments