Guitar Tabs, Chords and Lyrics
Major upgrade!! After one year development the new version of Chordie is now online! Please give feedback.


Classical Gas  Mason Williams

Classical Gas
Mason Williams
Guitar 1
[Am] [G]^ [Esus4]^ [A5]^
H E E Q H Q Q Q H.
 
 E||-----------------|----------------|------------------|---------------|
 B||--1-----------1--|--0-------------|--0---------------|---------------|
 G||-----------2-----|--0-------------|--0-----2----0----|--2------------|
 D||-----------------|--0-------------|--2---------------|--2------------|
 A||--0--------------|----------------|------------------|--0------------|
 E||-----------------|--3----2--------|--0---------------|---------------|

[Am] [G]^ [Esus4]^
|--3--|
E E S S S E E E Q H E E E E E E
 
 --------------------------|----------------|------------------------|
 --------0h-1p-0----0h--1--|--0-------------|--0------------------0--|
 -----2----------2---------|--0-------------|--0-----2--0--0h--2-----|
 --------------------------|--0-------------|--2---------------------|
 --0-----------------------|----------------|------------------------|
 --------------------------|--3----2--------|--0---------------------|

[A5]^ [G] [Am] [G] [Am]
 
 |--3--| |--3--| |--3--| 

Q E E E E E E E E E Q E E Q Q
 
 ----------------------------------|--0--------------------|
 -------------0--------1--------3--|----------3--1----3----|
 --2-------0--------2--------0-----|-------0-----2---------|
 --2-------------------------------|-----------------------|
 --0-------------0--------2--------|--3--------------------|
 -------3--------------------------|-----------------------|

[E5] [Asus2]  
 
 |----3----| 

E E H. E E E E E E E E E
 
 ---------------------|---------------------------------|
 -----1--0------------|--0h----1p--0--1--------1-----0--|
 ---------------------|------------------2--L-----------|
 --2------------------|---------------------------2-----|
 ---------------------|--0------------------0-----------|
 ---------------------|---------------------------------|

[E] [E] [E] [E] [E] [E] [E] [E] [E] [E] [E] [E] [E] [E] [E] [E]  
 
 --------------------------|--------------------------|
 --L-----------------------|--0--------------0--------|
 --------0--------0--------|-----2--0--2--L--------2--|
 -----0--------0--------0--|--2-----------------------|
 --------------------------|--------------------------|
 --3--------2--------0-----|--------------0-----0-----|
 |---3---| 

[E] [E] [E] [E] [E] [E] [E] [E] [E] [E] [E] [E] [E] [E] [E] [E] [E]  
 
 --------------------------|-------------------------------|
 --------------------------|--0h--1p--0--1--------1-----0--|
 --L-----2--------2--------|----------------2--L-----------|
 -----2--------2--------2--|-------------------------2-----|
 --0--------0--------0-----|--0----------------0-----------|
 --------------------------|-------------------------------|

[E] [E] [E] [E] [E] [E] [E] [E] [E] [E] [E] [E] [E] [E] [E] [E]  
 
 --------------------------|--------------------------|
 --L-----------------------|--0--------------0--------|
 --------0--------0--------|-----2--0--2--L--------2--|
 -----0--------0--------0--|--2-----------------------|
 --------------------------|--------------------------|
 --3--------2--------0-----|--------------0-----0-----|
 |---3---| 

[E] [E] [E] [E] [E] [E] [E] [E] [E] [E] [E] [E] [E] [E] [E] [E] [E]  
 
 ----------------------------|-------------------------------|
 ----------------------------|--0h--1p--0--1--------1-----0--|
 --L--0h--2-----0h--2--------|----------------2--L-----------|
 -----0h--2-----0h--2-----2--|-------------------------2-----|
 --0---------0---------0-----|--0----------------0-----------|
 ----------------------------|-------------------------------|

[E] [E] [E] [E] [E] [E] [E] [E] [E] [E] [E] [E] [E] [E] [E] [E]  
 
 --------------------------|--------------------------|
 --L-----------------------|--0--------------0--------|
 --------0--------0--------|-----2--0--2--L--------2--|
 -----0--------0--------0--|--2-----------------------|
 --------------------------|--------------------------|
 --3--------2--------0-----|--------------0-----0-----|

E E E E E E E E E E E E E E E E Q E E Q E E
 
 --------------------------|--------------------------|--0---------------------|
 -----------0--L-----0--1--|--L-----1--------3--------|----------3--1----3-----|
 --L-----0--------0--------|-----2--------0--------0--|-------0-----2----------|
 -----2--------------------|--------------------------|---------------------2--|
 --0-----------------------|--0--------2--L-----2-----|--3---------------------|
 --------------3-----------|--------------------------|------------------------|

E E Q Q. E E Q E E E E E E E E E
 
 -------------|-----------------------|--------------------------|
 -----1--0----|-----------------------|-----------0--L-----0--1--|
 -------------|--2------0--2--2----0--|--2-----2--------0--------|
 --L----------|--3------0--2--2----0--|-----2--------------------|
 -------------|-----------------------|--0-----------------------|
 -------------|--1------L--0----------|--------------3-----------|

[E] [E] [E] [E] [E] [E] [E] [E] [E] [E] [E] [E] [E] [E] [E] [E] [E] [E] [E] [E]  
 
 --------------------------|--0--------1--------2--------3--------|
 --1-----1--------3--------|-----1--------1--------3--------3-----|
 -----2--------0--------0--|--------0--------2--------2--------4--|
 --------------------------|--------------------0-----------------|
 --0--------2--L-----2-----|--3-----------------------------------|
 --------------------------|-----------1-----------------3--------|

E E E E E E [Am]E E E [C]E E E E [D]E E E E E E Q E
 
 --4p--0--5p--0--7p--0--|--8--7--5--------5--------|-----5--------5-------5--|
 -----------------------|--5--5--5--8--L--5-----7--|--L--7--7-----7--7----5--|
 -----------------------|--5--5--5--5--L--5-----7--|--L--7--7-----7--7----5--|
 -----------------------|-----------5--L--------7--|--L-----7--------7-------|
 -----------------------|--------------7-----------|--5--------5--L----------|
 --0--------------------|--5-----------------5-----|-------------------------|

[E] [E] [E] [E] [E] [E] [E] [E] [E] [E] [E] [E] [E] [E] [E] [E]  
 
 --8--7--5--------5--------|-----------5-----------5--|
 --5--5--5--8--L--5-----7--|--L--8-----7--8-----5-----|
 --5--5--5--5--L--5-----7--|--L--7-----7--7--5--------|
 -----------5--L--------7--|--L--7--------7-----------|
 --------------7-----------|--5-----5-----L-----------|
 --5-----------------5-----|--------------------------|

[E] [E] [E] [E] [E] [E] [E] [E] [E] [E] [E] [E] [E] [E] [E] [E]  
 
 --8--7--5--------5--------|--------8--5--------5--3--|
 --5--5--5--8--L--5-----7--|--L-----7--7--8-----5--3--|
 --5--5--5--5--L--5-----7--|--L--7--7--7--7-----7--4--|
 -----------5--L--------7--|--L-----------7-----------|
 --------------7-----------|--5--------------5--L-----|
 --5-----------------5-----|--------------------------|

E E E E E E E E E E E [Asus4]Q E Q E Q E Q
 
 --L--------------1--L-----------|-----0--------0----L--0-------0----|
 --L-----5--------1--L-----3-----|-----3--------3----L--3-------3----|
 --L-----5-----5-----------3-----|-----2--------2----L--2-------2----|
 -----5-----------------3--------|-----------------------------------|
 -----------3--L--------------1--|--0--------0--L----0-------0--L----|
 --3-----------L-----1-----1-----|-----------------------------------|

E E E E H W [C#]E Q E E E Q
 
 --------------0--------|--L----------------|--1--1-------------1----|
 -----------3-----------|-------------------|--2--2----------2-------|
 --------2--------------|-------------------|--1--1----1--L----------|
 -----3-----------------|-------------------|------------------------|
 --0--------------------|--L----------------|----------4--L----------|
 -----------------------|-------------------|--4--4------------------|

[F#/G#]Q Q H E Q E E E Q Q Q E E E E
 
 --2-----2----1--------|--1--1-------------1----|--2----2----1--------1--|
 --2-----2----2--------|--2--2----------2-------|--2----2----2-----2-----|
 --3-----3----1--------|--1--1----1--L----------|--3----3----1--1--------|
 ----------------------|------------------------|------------------------|
 -------------4--------|----------4--4----------|------------4-----------|
 --4-----4-------------|--4--4------------------|--4----4----------------|

[E]E Q E E E Q Q Q Q E Q E E E Q
 
 --4--4-------------4----|--5----5----4----|--4--4-------------4----|
 --5--5----------5-------|--5----5----5----|--5--5----------5-------|
 --4--4----4--L----------|--6----6----4----|--4--4----4--L----------|
 ------------------------|-----------------|------------------------|
 ----------7--L----------|------------7----|----------7--L----------|
 --0--0------------------|--7----7---------|--0--0------------------|

Q Q E E E E Q Q E E Q Q
 
 --5----5----4-----4--3--|--L----3----L--5--L----6----|
 --5----5----5--5-----3--|--L----5----L--6--L----6----|
 --6----6----4--------4--|--L----5----L--5--L----7----|
 ------------------------|----------------------------|
 ------------------------|-------3----L--8--L---------|
 --7----7----0--------3--|--3--------------------6----|

E Q E Q E Q E Q E Q E E Q E
 
 -----0-------0----L--0-------0----|---------------------0--|
 -----3-------3----L--3-------3----|----------------3-------|
 -----2-------2----L--2-------2----|----------2--L----------|
 ----------------------------------|-----3------------------|
 --0-------0--L----0-------0--L----|--0---------------------|
 ----------------------------------|------------------------|
 |---3---| 

E Q E E E E E E E E E E E E E E
 
 --L----------------------|-------------------------------|
 -----2-------------3-----|--0h--1p--0--1--------------3--|
 ----------2-----2-----0--|----------------2--L-----2-----|
 -------------3-----------|----------------------2--------|
 --L----------------------|--0----------------0-----------|
 -------------------------|-------------------------------|
 |---3---| 

[E] [E] [E] [E] [E] [E] [E] [E] [E] [E] [E] [E] [E] [E] [E] [E] [E]  
 
 --------------------------|-------------------------------|
 --L-----1--------0--------|--0h--1p--0--1--------------0--|
 -----2--------2--------2--|----------------2--L-----2-----|
 --------------------------|----------------------2--------|
 --0--------0--------0-----|--0----------------0-----------|
 --------------------------|-------------------------------|
 |---3---| 

[E] [E] [E] [E] [E] [E] [E] [E] [E] [E] [E] [E] [E] [E] [E] [E] [E]  
 
 --------------------------|-------------------------------|
 --L-----------------------|--0h--1p--0--1--------------0--|
 --------2--------2--------|----------------2--L-----2-----|
 -----2--------2--------2--|----------------------2--------|
 --0--------0--------0-----|--0----------------0-----------|
 --------------------------|-------------------------------|

[E] [E] [E] [E] [E] [E] [E] [E] [E] [E] [E] [E] [E] [E] [E] [E]  
 
 ---------------------------|--------------------------|
 --L-----1--------3--Ls--5--|--5-----5--3-----3--1-----|
 -----2--------2-----Ls--5--|-----5--------4--------2--|
 ---------------------------|--------------------------|
 --0--------0--------0------|--0--------0--L-----0-----|
 ---------------------------|--------------------------|

[E] [E] [E] [E] [E] [E] [E] [E] [E] [E] [E] [E] [E] [E] [E] [E]  
 
 --------------------------|--0-----0-----------------|
 --1--0-----0-----0--1--3--|-----3-----1--1-----1--0--|
 --------0-----2-----------|-----------------0--------|
 --------------------------|--------------------------|
 --L--0--L-----0-----0--2--|--3-----------3-----------|
 -----------------3--------|--------------------------|

[E] [E] [E] [E] [E] [E] [E] [E] [E] [E] [E] [E] [E] [E] [E] [E]  
 
 --------------1p--0--------|--0-----0-----------------|
 --L-----3------------3--0--|-----3-----1--L-----1--0--|
 -----0-----0---------------|-----------------2--------|
 ---------------------------|--------------------------|
 --2-----2-----2------------|--0-----------0-----------|
 ---------------------------|--------------------------|

[E] [E] [E] [E] [E] [E] [E] [E] [E] [E] [E] [E] [E] [E] [E] [E]  
 
 --------------1--0--------|--0-----0-----------------|
 --0-----3-----------3--0--|-----3-----1--L-----1--0--|
 -----0-----0--------------|-----------------0--------|
 --------------------------|--------------------------|
 --------------------------|--3-----------3-----------|
 --3-----3-----3-----------|--------------------------|

[E] [E] [E] [E] [E] [E] [E] [E] [E] [E] [E] [E] [E] [E] [E] [E]  
 
 --------------1p--0--------|--0-----0-----------------|
 --L-----3------------3--0--|-----3-----1--L-----1--0--|
 -----0-----0---------------|-----------------2--------|
 ---------------------------|--------------------------|
 --2-----2-----2------------|--0-----------0-----------|
 ---------------------------|--------------------------|

[E] [E] [E] [E] [E] [E] [E] [E] [E] [E] [E] [E] [E] [E] [E] [E]  
 
 --------------------------|--------------------------|
 --L-----------------------|--0--------------0--------|
 --------0--------0--------|-----2--0--2--L--------0--|
 -----0--------0--------0--|--2-----------------------|
 --------------------------|--------------------------|
 --3--------2--------0-----|--------------0-----0-----|

[E] [E] [E] [E] [E] [E] [E] [E] [E] [E] [E] [E] [E] [E] [E] [E] [E] [E] [E] [E] [E] [E]  
 
 --------------------------|--0-----1-----2-----3-----|--4p--0--5p--0--7p--0--|
 --------0-----1-----3-----|-----1-----1-----3-----3--|-----------------------|
 --2--------0-----2-----0--|--------------------------|-----------------------|
 -----2--------------------|--------------------------|-----------------------|
 --0-----------0-----2-----|--3-----------------------|-----------------------|
 --------3-----------------|--------1-----------3-----|-----------------------|

E E E E E E E E E E E E E Q E E E E E E E E E
 
 --8--7--5--------5--------|-----5--------5-------5--|--8--7--5--------5--------|
 --5--5--5--8--L--5-----7--|--L--7--7-----7--7----5--|--5--5--5--8--L--5-----7--|
 --5--5--5--5--L--5-----7--|--L--7--7-----7--7----5--|--5--5--5--5--L--5-----7--|
 -----------5--L--------7--|--L-----7--------7-------|-----------5--L--------7--|
 --------------7-----------|--5--------5--L----------|--------------7-----------|
 --5-----------------5-----|-------------------------|--5-----------------5-----|

[E] [E] [E] [E] [E] [E] [E] [E] [E] [E] [E] [E] [E] [E] [E] [E]  
 
 -----------5-----------5--|--8--7--5--------5--------|
 --L--8-----7--8-----5-----|--5--5--5--8--L--5-----7--|
 --L--7-----7--7--5--------|--5--5--5--5--L--5-----7--|
 --L--7--------7-----------|-----------5--L--------7--|
 --5-----5-----L-----------|--------------7-----------|
 --------------------------|--5-----------------5-----|

[E] [E] [E] [E] [E] [E] [E] [E] [E] [E] [E] [E] [E] [E] [E] [E] [E] [E]  
 
 --------8--5--------5--3--|--L--------------1--L-----------|
 --L-----7--7--8-----7--3--|--L-----5--------1--L-----3-----|
 --L--7--7--7--7--------4--|--L-----5-----5-----------3-----|
 --L-----------7-----------|-----5-----------------3--------|
 --5--------------5--L-----|-----------3--L--------------1--|
 --------------------------|--3-----------L-----1-----1-----|
 |-----7-----| 7 7 

E Q E Q E Q E Q H E E E E E E E
 
 -----0-------0----L--0-------0----|--L-----------------0-----------|
 -----3-------3----L--3-------3----|--L--------------3-----3--------|
 -----2-------2----L--2-------2----|--L-----------2-----------2-----|
 ----------------------------------|-----------3-----------------3--|
 --0-------0--L----0-------0--L----|--L-----------------------------|
 ----------------------------------|--------------------------------|
 |---3---| 

W E Q E E E Q E E E E E E E E E
 
 --0----------------|--L---------------------|-------------------------------|
 --3----------------|--L---------------------|--0h--1p--0--1--------1-----0--|
 --2----------------|--2--0------------------|----------------2--L-----------|
 --3----------------|--L-------2--L--0-------|-------------------------2-----|
 --0----------------|--L----------------3----|--0----------------0-----------|
 -------------------|------------------------|-------------------------------|

[E] [E] [E] [E] [E] [E] [E] [E] [E] [E] [E] [E] [E] [E] [E] [E]  
 
 --------------------------|--------------------------|
 --L-----------------------|--0--------------0--------|
 --------0--------0--------|-----2--0--2--L--------2--|
 -----0--------0--------0--|--2-----------------------|
 --------------------------|--------------------------|
 --3--------2--------0-----|--------------0-----0-----|
 |---3---| 

[E] [E] [E] [E] [E] [E] [E] [E] [E] [E] [E] [E] [E] [E] [E] [E] [E]  
 
 ----------------------------|-------------------------------|
 ----------------------------|--0h--1p--0--1--------1-----0--|
 --L--0h--2-----0h--2--------|----------------2--L-----------|
 -----0h--2-----0h--2-----2--|-------------------------2-----|
 --0---------0---------0-----|--0----------------0-----------|
 ----------------------------|-------------------------------|

[E] [E] [E] [E] [E] [E] [E] [E] [E] [E] [E] [E] [E] [E] [E] [E]  
 
 --------------------------|--------------------------|
 --L-----------------------|--0--------------0--------|
 --------0--------0--------|-----2--0--2--L--------2--|
 -----0--------0--------0--|--2-----------------------|
 --------------------------|--------------------------|
 --3--------2--------0-----|--------------0-----0-----|

E E E E E E E E E E E E E E E E Q E E E E E E
 
 --------------------------|--------------------------|--0----------------------|
 -----------0--L-----0--1--|--L-----1--------3--------|----------3--1-----3-----|
 --L-----2--------0--------|-----2--------0--------0--|-------0--2--------------|
 -----2--------------------|--------------------------|----------------------2--|
 --0-----------------------|--0--------2--L-----2-----|--3----------------------|
 --------------3-----------|--------------------------|-------------------------|

E E Q Q. E E Q E E E E E E E E E
 
 -------------|-----------------------|--------------------------|
 -----1--0----|-----------------------|--------0-----1-----3-----|
 -------------|--2------0--2--2----0--|--2-----0-----2-----0-----|
 --L----------|--3------0--2--2----0--|-----2-----0-----2-----0--|
 -------------|-----------------------|--0-----------0-----2-----|
 -------------|--1---------0----------|--------3-----------------|

[E] [E] [E] [E] [E] [E] [E] [E] [E] [E] [E] [E] [E] [E] [E] [E] [E] [E] [E] [E] [E] [E]  
 
 --0-----1-----2-----3-----|--4-----5-----7--5--|--L--------------3--L-----|
 --1-----1-----3-----3-----|--5-----5-----5--5--|--5-----7--------3--L-----|
 -----0-----2-----2-----4--|-----4-----4--------|--------7-----7-----------|
 --------------0-----------|--------------------|-----7-----------------5--|
 --3-----------------------|--------------------|--------------------------|
 --------1-----------3-----|--0-----------------|--5--------5--L-----3-----|

E E E E E E E E E Q E E Q E E Q E E E E E
 
 -----------1--L-----------|---------------------0--|--L----------------------|
 --5--------1--L-----3-----|----------------3-------|-----3-------------3-----|
 --5-----5-----------3-----|----------2--L----------|----------2-----2-----2--|
 -----------------3--------|-----3------------------|-------------3-----------|
 -----3--L--------------1--|--0---------------------|--L----------------------|
 --3-----------1-----------|------------------------|-------------------------|

^
|--3--|
E Q E E Q E E Q E E E E E H. E E E
 
 ---------------------0--|--L----------------------|------------------------|
 ----------------3-------|-----3-------------3--0--|--2------------------2--|
 ----------2--L----------|----------2-----2-----0--|--2---------------2-----|
 -----4------------------|-------------4-----------|--2---------------------|
 --0---------------------|--L----------------------|--0------------0--------|
 ------------------------|-------------------------|------------------------|
 |--3--| |--3--| |--3--| |--3--| |---3---| |---3---| 

[E] [E] [E] [E] [E] [E] [E] [E] [E] [E] [E] [E] [E] [E] [E] [E] [E] [E]  
 
 --------------------------------------|------------------------|
 --------3--------5--------7--------8--|---------10---------12--|
 -----4--------6--------7--------9-----|-----11---------12------|
 --------------------------------------|------------------------|
 --0--------0--------0--------0--------|--0----------0----------|
 --------------------------------------|------------------------|

^ ^
E E H. W W
 
 ---9-------9------------|--5----------------|--L----------------|
 --10--12--10------------|--5----------------|--L----------------|
 ---9--------------------|--6----------------|--L----------------|
 ------------------------|--7----------------|--L----------------|
 ---0--------------------|--7----------------|--L----------------|
 ------------------------|--5----------------|--L----------------|

W
 
 -------------------||
 -------------------||
 -------------------||
 -------------------||
 -------------------||
 -------------------||

Duration Legend
 
 ---------------

W - whole
H - half
Q - quarter
E - 8th
S - 16th
T - 32nd
X - 64th
. - note dotted
|-n-| - n-tuplets
Tablature Legend
 
 ----------------

L - tied note
x - dead note
g - grace note
(n) - ghost note
> - accentuded note
NH - natural harmonic
AH - artificial harmonic
TH - tapped harmonic
SH - semi harmonic
PH - pitch harmonic
h - hammer on
p - pull off
B - bend
br - bendRelease
pb - preBend
pbr - preBendRelease
brb - bendReleaseBend
\n/ - tremolo bar dip
\n - tremolo bar dive
-/n - tremolo bar Release up
/n\ - tremolo bar inverted dip
/n - tremolo bar return
-\n - tremolo bar Release down
S - shift slide
s - legato slide
/ - slide into from below or out of upwards
\ - slide into from above or out of downwards
~ - vibrato
W - wide vibrato
tr - trill
TP - tremolo picking
T - tapping
S - slap

Important: The song above is NOT stored on the Chordie server. The original song is hosted at www.guitaretab.com. Chordie works as a search engine and provides on-the-fly formatting. Chordie does not index songs against artists'/composers' will. To remove this song please click here.

Text color:
Chord color:
Chord grids: 
Font size:    
Page size: 

A5 Am Asus2 Asus4 C C# D E E5 Esus4 F#/G# G
Rate #1 of 3 versions

Jango Player

Login - add to songbook

SHARE PAGE  



You need to log in to post comments