Guitar Tabs, Chords and Lyrics
Server problems seems to be fixed. Chordie has been experiencing problems with songs disappearing. These issues now seems to be fixed, but still verifying the fix. If you find anything strange, please email admin@chordie.com.


Naked Burn  Mastodon

Band: Mastodon
Album: Leviathan
Song: Naked Burn
Transcribed By: pirate_shanty
Tunning D G C F A D
Intro
Q=150
N.C.(Bm)
[3/4] Gtr I
 
 PM--------------------------------------------------|
 |-2-3-2-2-2-0-|-2-3-2-2-2-5-|-2-3-2-2-2-0-|-2-3-2-2-2-5-|
 |-0-0-0-4-0-0-|-0-0-0-4-0-0-|-0-0-0-4-0-0-|-0-0-0-4-0-0-|
 |-------------|-------------|-------------|-------------|
 |-------------|-------------|-------------|-------------|
 |-------------|-------------|-------------|-------------|
 |-------------|-------------|-------------|-------------|
 PM------------------------------------------------------------|
 |-7-8-7-7-7--7-|-7-8-7-7-7-10-|--7--8-7-7-7--7-|--7--8-7-7--7---10-|
 |-0-0-0-9-0-10-|-0-0-0-9-0--0-|--0--0-0-9-0-10-|--0--0-0-9--0----0-|
 |--------------|--------------|----------------|-------------------|
 |--------------|--------------|----------------|-------------------|
 |--------------|--------------|----------------|-------------------|
 |--------------|--------------|----------------|-------------------|

|
| Gtr II
| <
 
 |--------------|--------------|----------------|-------------------|
 |--------------|--------------|----------------|-------------------|
 |--------------|--------------|----------------|-------------------|
 |--------------|-9------------|-(9)------------|-(9)-------(9)\----|
 |--------------|--------------|----------------|-------------------|
 |--------------|--------------|----------------|-------------------|

[B5]  
 
 PM--------------------------------------------------|
 |-2-3-2-2-2-0-|-2-3-2-2-2-5-|-2-3-2-2-2-0-|-2-3-2-2-2-5-|
 |-0-0-0-4-0-0-|-0-0-0-4-0-0-|-0-0-0-4-0-0-|-0-0-0-4-0-0-|
 |-------------|-------------|-------------|-------------|
 |-------------|-------------|-------------|-------------|
 |-------------|-------------|-------------|-------------|
 |-------------|-------------|-------------|-------------|

|
 
 |-------------|-------------|-------------|-------------|
 |-------------|-------------|-------------|-------------|
 |-------------|-------------|-------------|-------------|
 |-------------|-------------|-------------|-------------|
 |-2-2---------|-------------|-2-2---------|-------------|
 |-2-2---------|-------------|-2-2---------|-------------|
 PM----------------------------------|
 |-7-8-7-7-7--7-|-7-8-7-7-7-10-|-7-8-7-7-7--7-|-7-8-7-7-7-10-|
 |-0-0-0-9-0-10-|-0-0-0-9-0--0-|-0-0-0-9-0-10-|-0-0-0-9-0--0-|
 |--------------|--------------|--------------|--------------|
 |--------------|--------------|--------------|--------------|
 |--------------|--------------|--------------|--------------|
 |--------------|--------------|--------------|--------------|

|
 
 |--------------|--------------|--------------|--------------|
 |--------------|--------------|--------------|--------------|
 |--------------|--------------|--------------|--------------|
 |--------------|--------------|--------------|--------------|
 |-2-2----------|--------------|-2-2----------|--------------|
 |-2-2----------|--------------|-2-2----------|--------------|

1st Verse
B5 B D5
Gtrs I, II
 
 ||--------------|-----------|-------------|------------|
 ||o-------------|-----------|-------------|------------|
 ||--------------|-----------|-------------|------------|
 ||--4-5-4-2-4-5-|-4--3--3-3-|-3-3-3-3-3S7-|-7--7-7-7-0-|
 ||o-2-3-2-0-2-3-|-2--2--2-2-|-2-2-2-2-2S5-|-5--5-5-5-0-|
 ||--------------|-----------|-------------|------------|

B5 B A5 B5
 
 |-------------|-----------|-------------|-------------||-------------|
 |-------------|-----------|-------------|------------o||-------------|
 |-------------|-----------|-------------|-------------||-------------|
 |-4-5-4-2-4-5-|-4--3--3-3-|-3-3-3-3-3-0-|-2--2-2-2-2--||-4-5-4-2-4-5-|
 |-2-3-2-0-2-3-|-2--2--2-2-|-2-2-2-2-2-0-|-0--0-0-0-0-o||-2-3-2-0-2-3-|
 |-------------|-----------|-------------|-------------||-------------|

Pre-Chorus
[E5] [Bb5] [C5] [Bb5] [C5]  
 
 ||--------------|------------|-----------|-----------------|
 ||o-------------|------------|-----------|-----------------|
 ||-------11-----|-9--9-9-----|-----------|-----------------|
 ||--------x-----|-x--x-x-----|-----------|-----------------|
 ||o-------9-----|-7--7-7-----|-8---8-8-x-|-10-10-10-8-8-10-|
 ||--0--0----0-0-|--------0-0-|-6---6-6-x-|--8--8--8-6-6--8-|

[E5]Gtr I[Bb5] [E5] [D5] [E5]
 
 |-------------|------------|-----------|--------------||
 |-------------|------------|-----------|-------------o||
 |------11-----|-9--9-9-----|-----------|--------------||
 |-------x-----|-x--x-x-----|-----------|-9-9-9-7-7-9--||
 |-------9-----|-7--7-7-----|-8---8-8-x-|-7-7-7-5-5-7-o||
 |-0--0----0-0-|--------0-0-|-6---6-6-x-|--------------||

|
| Gtr II
 
 |-------------|------------|-----------|--------------||
 |-------------|------------|-----------|-------------o||
 |-------6-----|-4--4-4-----|-----------|--------------||
 |-------x-----|-x--x-x-----|-----------|-9-9-9-7-7-9--||
 |-------4-----|-2--2-2-----|-8---8-8-x-|-7-7-7-5-5-7-o||
 |-0--0----0-0-|--------0-0-|-6---6-6-x-|--------------||

Chorus
[E5]Gtrs I, II
 
 |------------|------------|------------|------------|
 |------------|------------|------------|------------|
 |-9--9-9-----|-9--9-9-----|-9--9-9-----|-9--9-9-----|
 |-9--9-9-----|-9--9-9-----|-9--9-9-----|-9--9-9-----|
 |-7--7-7-----|-7--7-7-----|-7--7-7-----|-7--7-7-----|
 |--------0-0-|--------0-0-|--------0-0-|--------0-0-|

[D5]  
 
 |-------------|-------------|-------------|-------------|
 |-------------|-------------|-------------|-------------|
 |-7-7-7-7-----|-7-7-7-7-----|-------------|-----4---4-6-|
 |-7-7-7-7-x-x-|-7-7-7-7-x-x-|-----4-5-7-4-|-5-----0-----|
 |-5-5-5-5-x-x-|-5-5-5-5-x-x-|-5-7---------|---7---------|
 |-------------|-------------|-------------|-------------|

[E5]  
 
 |------------|------------|------------|-------------|
 |------------|------------|------------|-------------|
 |-9--9-9-----|-9--9-9-----|-9--9-9-----|-7-5-4-------|
 |-9--9-9-----|-9--9-9-----|-9--9-9-----|-------7-5-4-|
 |-7--7-7-----|-7--7-7-----|-7--7-7-----|-------------|
 |--------0-0-|--------0-0-|--------0-0-|-------------|

[D5]Gtr I
 
 |-------------|-------------|-------------------|-------------------|
 |-------------|-------------|-------------------|-------------------|
 |-7-7-7-7-----|-7-7-7-7-----|-------------------|--------4-----4----|
 |-7-7-7-7-x-x-|-7-7-7-7-x-x-|--------4--5--7--4-|--5--------5-----5-|
 |-5-5-5-5-x-x-|-5-5-5-5-x-x-|--5--7-------------|-----7-------------|
 |-------------|-------------|-------------------|-------------------|

|
| Gtr II
 
 |-------------|-------------|-------------------|-------19----19----|
 |-------------|-------------|-------19-20-22-19-|-20-------20----20-|
 |-7-7-7-7-----|-7-7-7-7-----|-19-21-------------|----21-------------|
 |-7-7-7-7-x-x-|-7-7-7-7-x-x-|-------------------|-------------------|
 |-5-5-5-5-x-x-|-5-5-5-5-x-x-|-------------------|-------------------|
 |-------------|-------------|-------------------|-------------------|

Interlude
[G]Gtr I
 
 |------------------|------------------|------------------|------------------|
 |------------------|------------------|------------------|------------------|
 |------------------|------------------|------------------|------------------|
 |----9----10----12-|----9----10----12-|----9----10----12-|----9----10----12-|
 |-10---10----10----|-10---10----10----|-10---10----10----|-10---10----10----|
 |------------------|------------------|------------------|------------------|

[Dm]  
 
 |--------------|--------------|--------------|--------------|
 |--------------|--------------|--------------|--------------|
 |--------------|--------------|--------------|--------------|
 |---7---8---10-|---7---8---10-|---7---8---10-|---7---8---10-|
 |-5---5---5----|-5---5---5----|-5---5---5----|-5---5---5----|
 |--------------|--------------|--------------|--------------|

C# Bb+
 
 |-------------|-------------|-------------|
 |-------------|-------------|-------------|
 |-------------|-------------|-------------|
 |---2---3---5-|---2---3---5-|---2---3---5-|
 |-4---4---4---|-4---4---4---|-1---1---1---|
 |-------------|-------------|-------------|

[A]  
 
 |-------------|-------------|-------------|
 |-------------|-------------|-------------|
 |-------------|-------------|-------------|
 |---2---3---5-|-------------|-------------|
 |-1---1---1---|---4---5---7-|---4---5---7-|
 |-------------|-5---5---5---|-5---5---5---|

Bridge
To Coda
[F#5]Gtrs I[G5], I[A5]I[F#5] [G5] [A5] [F#5] [G5] [A5] [F#5] [G5] [F#5]
 
 |------------|------------|------------|-------------|
 |------------|------------|------------|-------------|
 |------------|------------|------------|-------------|
 |------------|------------|------------|-------------|
 |-4-4-4-5--7-|-4-4-4-5--7-|-4-4-4-5--7-|-4-4-4-5--4--|
 |-2-2-2-3--5-|-2-2-2-3--5-|-2-2-2-3--5-|-2-2-2-3--2--|

D.C. al Coda
[F#5] [G5] [A5] [F#5] [G5] [A5] [F#5] [G5] [A5] [F#5] [G5] [F#5]  
 
 |------------|------------|------------|-------------|
 |------------|------------|------------|-------------|
 |------------|------------|------------|-------------|
 |------------|------------|------------|-------------|
 |-4-4-4-5--7-|-4-4-4-5--7-|-4-4-4-5--7-|-4-4-4-5--4--|
 |-2-2-2-3--5-|-2-2-2-3--5-|-2-2-2-3--5-|-2-2-2-3--2--|

Outro
&
F#5 B5 A5 F#5 G5 A5 F#5 B5 A5 N.C.
 
 |------------|------------|------------||--------------------------|
 |------------|------------|------------||o-------------------------|
 |------------|------------|------------||--(2)---------------------|
 |------------|------------|------------||------(5)-(4)-(2)-(4)-(2)-|
 |-4-4-4-9--7-|-4-4-4-5--7-|-4-4-4-9--7-||o--5---3---2---0---2---0--|
 |-2-2-2-7--5-|-2-2-2-3--5-|-2-2-2-7--5-||--------------------------|

[F#5] [G5] [A5]  
 
 |-------------------------|------------|
 |-------------------------|------------|
 |-------------------------|------------|
 |-----(4)-(2)-------------|------------|
 |-(4)--2---0--(5)-(4)-(2)-|-4-4-4-5--7-|
 |--2-----------3---2---0--|-2-2-2-3--5-|

[F#5] [B5A5] [F#5] [G5] [A5] [F#5] [B5A5] 3x
 
 |-------------|------------|--------------||
 |-------------|------------|-------------o||
 |-------------|------------|--------------||
 |-------------|------------|--------------||
 |-4-4-4-9S7-7-|-4-4-4-5--7-|-4-4-4-9S7-7-o||
 |-2-2-2-7S5-5-|-2-2-2-3--5-|-2-2-2-7S5-5--||

N.C. F#5
3x
 
 ||--------------|--------------||--------*|
 ||o-------------|-------------o||--------*|
 ||--------------|--------------||--------*|
 ||--------------|--------------||--------*|
 ||o-5-3-2-0-2-0-|---2-0-------o||-4-4----*|
 ||--------------|-2-----3-2-0--||-2-2----*|

|
| Gtr II
| 3x
 
 ||--------------|--------------||--------*|
 ||o-------------|-------------o||--------*|
 ||--2-----------|--------------||--------*|
 ||----5-4-2-4-2-|---4-2--------||--------*|
 ||o-------------|-4-----5-4-2-o||-4-4----*|
 ||--------------|--------------||-2-2----*|

phew!
hope this helps.

Important: The song above is NOT stored on the Chordie server. The original song is hosted at www.guitaretab.com. Chordie works as a search engine and provides on-the-fly formatting. Chordie does not index songs against artists'/composers' will. To remove this song please click here.

Text color:
Chord color:
Chord grids: 
Font size:    
Page size: 

A A5 B5 Bb5 C5 D5 Dm E5 F#5 G G5
Rate #1 of 2 versions

Jango Player

Login - add to songbook

SHARE PAGE  



You need to log in to post comments