Guitar Tabs, Chords and Lyrics
Major upgrade!! After one year development the new version of Chordie is now online! Please give feedback.


She's So Mean  Matchbox Twenty

 
 ----------------------------------------------------------------------------

She's So Mean - Matchbox Twenty
 
 ----------------------------------------------------------------------------

Tabbed by LesThanPaul
Standard Tuning
Matchbox 20's new single, tabbed out the best I can. Some parts can be
hard to hear cause there's a lot of layering, but everything's mostly here.
Intro/Verse
 
 e|-----------------------|
 B|-----------------------|
 G|-5--5-5-5/12-12-12-10--|
 D|-5--5-5-5/12-12-12-10--|
 A|-3--3-3-3/10-10-10-10--|
 E|-----------------------|

Halfway through a distorted guitar comes in doing this:
 
 e|---------------------|
 B|---------------------|
 G|-5--5-5-5------------|
 D|-5--5-5-5--5-5-5-3---|
 A|-3--3-3-3--5-5-5-3---|
 E|-----------3-3-3-1---|

Prechorus
The way you pick the chords isn't that important (I've
given my example of what I usually do), but what's important
are getting the changes which I've marked
[C] [G] [F/C]  
 
 e|-3-----3-----3---|-3-----|-----0------|
 B|---1-----1-----1-|---0---|-1-----1----|
 G|-----0-----0-----|-----0-|---------2--|
 D|-----------------|-------|------------|
 A|-----------------|-------|------------|
 E|-----------------|-------|------------|

She'll make you [C]take her to the club, but then she [G]leaves with her [F/C]friends
She likes to [C]stay late at the party, 'cause the [G]fun never [F/C]ends
And all her [C]clothes are on the floor and all your [G]records are [F/C]scratched
She's like a [C]one-way ticket 'cause you [G]can't come [F/C]back!
Chorus
[C] [Gadd11] [Csus4]  
 
 e|--3--|---3---|--3--|
 B|--1--|---1---|--1--|
 G|--0--|---0---|--0--|
 D|--2--|---0---|--3--|
 A|--3--|---2---|--3--|
 E|-----|---3---|-----|

Saying [C]yeah... you [Gadd11]want her, but [Csus4]she's so mean
[C] (You'll never let her go[Gadd11]. Why don't you [Csus4]let her go?)
Saying [C]yeah... you [Gadd11]want her, but [Csus4]she's so mean
[C] (You'll never let her go[Gadd11]. Why don't you [Csus4]let her go?)
Bridge
Repeat each chord as necessary
 
 e|----------------------------------|
 B|-1---------1---------1---------1--|
 G|-2---------2---------2---------2--|
 D|-2---------3---------2---------2--|
 A|-0---------3---------0---------3--|
 E|----------------------------------|

After the last prechorus and chorus play the intro a couple
more times, but end on the C powerchord.
Please leave comments/corrections and don't forget to rate!

Important: The song above is NOT stored on the Chordie server. The original song is hosted at www.guitaretab.com. Chordie works as a search engine and provides on-the-fly formatting. Chordie does not index songs against artists'/composers' will. To remove this song please click here.

Text color:
Chord color:
Chord grids: 
Font size:    
Page size: 

C Csus4 F/C G Gadd11
Rate #1 of 8 versions

Jango Player

Login - add to songbook

SHARE PAGE  




You need to log in to post comments