Guitar Tabs, Chords and Lyrics
Server problems seems to be fixed. Chordie has been experiencing problems with songs disappearing. These issues now seems to be fixed, but still verifying the fix. If you find anything strange, please email admin@chordie.com.


Alive Again  Matt Maher

Key: A# (Bb)
Relative to Capo 3
I figured this out from this video
http://www.youtube.com/watch?v=N3iAQvH5GrA
Tabbed and chorded by weksa
Contact: weksa@live.com
Tutorial: http://www.youtube.com/watch?v=vT1r4EWY1tk
Intro (2x):
[G]  
 
 e|----------------------------------------------|
 B|-------3-------3-------3-------3--------------|
 G|---0-------0-------0-----0---0----------------|
 D|-5---5---5---5---5---5-----4------------------|
 A|----------------------------------------------|
 E|----------------------------------------------|

Verse 1:
[G]  
 
 e|----------------------------------------------|
 B|-------3-------3-------3-------3--------------|
 G|---0-------0-------0-----0---0----------------|
 D|-5---5---5---5---5---5-----4------------------|
 A|----------------------------------------------|
 E|----------------------------------------------|

I woke up in darkness
[G]  
 
 e|----------------------------------------------|
 B|-------3-------3-------3-------3--------------|
 G|---0-------0-------0-------0------------------|
 D|-5---5---5---5---5---5---5---5----------------|
 A|----------------------------------------------|
 E|----------------------------------------------|

Surrounded by silence, ooh~
C G (play intro 1x)
 
 e|----------------------------------------------|
 B|-------3-------3-------3-------3--------------|
 G|---5-------5-------5-------5------------------|
 D|-5---5---5---5---5---5---5---5----------------|
 A|----------------------------------------------|
 E|----------------------------------------------|

Where, where have I gone?
[G]  
 
 e|----------------------------------------------|
 B|-------3-------3-------3-------3--------------|
 G|---0-------0-------0-----0---0----------------|
 D|-5---5---5---5---5---5-----4------------------|
 A|----------------------------------------------|
 E|----------------------------------------------|

I woke to reality
[G]  
 
 e|----------------------------------------------|
 B|-------3-------3-------3-------3--------------|
 G|---0-------0-------0-------0------------------|
 D|-5---5---5---5---5---5---5---5----------------|
 A|----------------------------------------------|
 E|----------------------------------------------|

Losing its grip on me, ooh~
C G (play the 5-0-3 4x)
 
 e|----------------------------------------------|
 B|-------3-------3-------3-------3--------------|
 G|---5-------5-------5-------5------------------|
 D|-5---5---5---5---5---5---5---5----------------|
 A|----------------------------------------------|
 E|----------------------------------------------|

Where, where have I gone?
Prechorus 1:
[D] [C]  
 
 e|----------------------------------------------|
 B|----------------3-------3-------1p0-----------|
 G|------------0-------0-------0-------0---0-----|
 D|--------------4-------4-------2-------2-------|
 A|----------5-------5-------3-------------------|
 E|----------------------------------------------|

'Cause I can see the light
D G/B C (build up strum)
 
 e|----------------------------------------------|
 B|-------3-------3-3----------------------------|
 G|---0-------0-----0----------------------------|
 D|-----4-------0---x----------------------------|
 A|-5-------2-------3----------------------------|
 E|----------------------------------------------|

Before I see the sunrise
Chords used:
(Prechorus 1) ( Chorus ) (Prechorus 2)
[D] [C] [G/B] [C] [Em] [C/G] [G] [D/F#] [D/A]  
 
 e|--------------------0---0---3---3------0------|
 B|-3---1---3---3------0---1---3---3------3------|
 G|-0---0---0---0------0---0---0---2------0------|
 D|-4---2---0---x------2---2---0---0------4------|
 A|-5---3---2---3------2---3---x---x------5------|
 E|--------------------0---3---3---2------5------|

Verse 1:
[G] I woke up in darkness
[G] Surrounded by silence
Oh [C]where, where have I gon[G]e?
[G] I woke to reality
[G] Losing its grip on me
Oh [C]where, where have I [G]gone?
Prechorus 1:
'Cause [D]I can see the [C]light
Be[D]fore I [G/B]see the [C]sunrise
Chorus:
You [Em]called and You [C/G]shouted
[G]Broke through my [D/F#]deafness
Now I'm [Em]breathing in and [C/G]breathing out
[G]I'm alive ag[D/F#]ain
You [Em]shattered my [C/G]darkness
[G]Washed away my [D/F#]blindness
Now I'm [Em]breathing in and [C/G]breathing out
[G]I'm alive ag[D/F#]ain
Verse 2:
[G] Late have I loved You
[G] You waited for me, I searched for [C]You
What took me so [G]long?
[G] I was looking outside
[G] As if Love would ever want to [C]hide
I'm finding I was [G]wrong
Prechorus 2:
'Cause [D/A]I can feel the [C/G]wind
Be[D/A]fore it [G/B]hits my [C]skin
Bridge:
'Cause I [Em]want You, yes I [C/G]want You
I [G]need You, and [D/F#]I'll do whatever I [Em]have to
Just to [C/G]get through
'Cause I [G]love You,
Yeah I [D/F#]love You

Important: The song above is NOT stored on the Chordie server. The original song is hosted at www.guitaretab.com. Chordie works as a search engine and provides on-the-fly formatting. Chordie does not index songs against artists'/composers' will. To remove this song please click here.

Text color:
Chord color:
Chord grids: 
Font size:    
Page size: 

C C/G D D/F# Em G G/B
Rate #2 of 10 versions

Jango Player

Login - add to songbook

SHARE PAGE  




You need to log in to post comments