Guitar Tabs, Chords and Lyrics
Major upgrade!! After one year development the new version of Chordie is now online! Please give feedback.


Raised By the Tide   Maylene and the Sons of Disaster

 
 |----------------------------------------------------|
 |--------3-----------6--3---------3------------------|
 |----------------------------------------------------|
 |----------------------------------------------------|
 |-0h3h5-----5h0-3h0--------0h3h5-----5h0-3h0---------|
 |----------------------------------------------3p0---|

 


 


 


 [0:36-0:55] 


 

 
 |---------------------------------------------|
 |---------------------------------------------|
 |---------------------------------------------|
 |---------------------5-3---------------------|
 |--5-5-------3-5-3-5-----------------------|
 |-------3-5-----------------------------------|

 


 On the SECOND and FOURTH time through this


 you play the last note as a pinch harmonic


 


 [0:56-1:13] 


 

 
 |---------------------------------------------|
 |---------------------------------------------|
 |---------------------------------------------|
 |--7---5----5---0-----------------------------|
 |--5---3----5---0-----------------------------|
 |-----------5---0-----------------------------|

 


 


 [1:14-1:22] 


 

 
 |----------------------------------------------------|
 |--------3-----------6--3---------3------------------|
 |----------------------------------------------------|
 |----------------------------------------------------|
 |-0h3h5-----5h0-3h0--------0h3h5-----5h0-3h0---------|
 |----------------------------------------------3p0---|

 


 


 [1:22-1:42] 


 

 
 |----------------------------------------------------|
 |----------------------------------------------------|
 |----------------------------------------------------|
 |----------------------------------------5-3---------|
 |--------------------------------------------5-5-----|
 |-3-0-0--3-0-0--3/5555555--3-0-0--3-0-0--------------|

 


 


 [1:42-1:50] 


 

 
 |---------------------------------------------|
 |---------------------------------------------|
 |---------------------------------------------|
 |---------------------5-3---------------------|
 |--5-5-------3-5-3-5-----------------------|
 |-------3-5-----------------------------------|

 


 


 [1:51-2:09] 


 

 
 |---------------------------------------------|
 |---------------------------------------------|
 |---------------------------------------------|
 |--7---5----5---0-----------------------------|
 |--5---3----5---0-----------------------------|
 |-----------5---0-----------------------------|

 


 


 [2:10-2:55] 


 Break/Solo


 

 
 |--------------------------------------------------|
 |--------------------------------------------------|
 |--5p2---------------------------------------------|
 |------3h5-3h5-------------3h5-5h6p5p3-0-0---------|
 |--------------3-5----3h5------------------3-3/5---|
 |--------------------------------------------------|
 |----------4b------8h5-3---------------------------|
 |------3b----------------6-3-6-1-1/3---------------|
 |--2h5---------------------------------------------|
 |--------------------------------------------------|
 |--------------------------------------------------|
 |--------------------------------------------------|
 |--------------------------------------------------|
 |--------------------------------------------------|
 |--------------------------------------------------|
 |--------------------------------------3-----------|
 |-------3-3/5--3-----------------3-3/5---5-3-5~----|
 |-0-3h5----------3h5p3-0~--0-3h5-------------------|

 


 


 


 [2:55-END] 


 

 
 |---------------------------------------------|
 |---------------------------------------------|
 |---------------------------------------------|
 |--7---5----5---0-----------------------------|
 |--5---3----5---0-----------------------------|
 |-----------5---0-----------------------------|


Important: The song above is NOT stored on the Chordie server. The original song is hosted at www.guitaretab.com. Chordie works as a search engine and provides on-the-fly formatting. Chordie does not index songs against artists'/composers' will. To remove this song please click here.

This song is displayed as text-only. Transposing and tuning is only available for chordpro-songs.
Rate #2 of 5 versions

Login - add to songbook

SHARE PAGE  




You need to log in to post comments