Guitar Tabs, Chords and Lyrics
Major upgrade!! After one year development the new version of Chordie is now online! Please give feedback.


We Are the Young  McFly

Transcribed by Soch Hean
Tuning: Standard
Intro Riff:
[D] [D/F#] [G]  
 
 |------2----3----|
 |-3----3----3----|
 |-2----2----0----|
 |-0----0----0----|
 |------x----2----|
 |------2----3----| (x2)

Verse:
Listen
[D]We got a situation
They're always putting us down
We are the gene[G]ration
Can't keep us under gr[D]ound
Is it my im[A]aginat[G#]ion[G]?
Or do you feel g[D]ood?[A]
[D]We're on a one - way mission
Oh we can take it all night
We are the su[G]nshine nation
Girl check the sound and lig[D]hts
Is it my imagin[A]ati[G#]on?[G]
Oh do you feel go[D]od?[A]
Pre-Chorus:
[D]What a day, what a day, what a da[D/F#]y
[G]What a day, what a day, what a day
[D]What a day, what a day, what a da[D/F#]y
[G]What a day, these are the days
Chorus:
[Em]Running the world
It's the t[F#m]ime of our lives
[G]Baby we won't ever d[A]ie
'Cause we[G]'re the yo[A]ung we're alr[D]ight
[D]We gotta stop this feeling
'Cause I don't wanna live twice
We'd better s[G]tart believing
Before we run out of t[D]ime
Oh is it my imagin[A]ati[G#]on?[G]
Or do you feel g[D]ood?[A]
Pre-Chorus:
[D]What a day, what a day, what a da[D/F#]y
[G]What a day, what a day, what a day
[D]What a day, what a day, what a da[D/F#]y
[G]What a day, these are the days
Chorus:
[Em]Running the world
It's the t[F#m]ime of our lives
[G]Baby we won't ever d[A]ie
'Cause we[G]'re the yo[A]ung we're alr[D]ight
Guitar Solo: (2:26)
 
 |-10-10-10-10-10-10-10-13-13-13-13-13-13-10-------10-------10-10-------10-10------------|
 |-10-10-10-10-10-10-10-10-10-10-10-10-10-10-------10-------10-10-------10-10------------|
 |-------------------------------------------12b14----12b14-------12b14-------12b14=14---|
 |---------------------------------------------------------------------------------------|
 |---------------------------------------------------------------------------------------|
 |---------------------------------------------------------------------------------------|
 |---------------------------------------------------------------------------------------|
 |-13b15r-10------------------x-x-12-x-10-10b10.5-------10~----10~-----------------------|
 |-----------12b14-12pb14-10--x-x-12-x-10-10b10.5-------10~----10~----10\----------------|
 |----------------------------x-x----x------------12-12-----12-----12--------------------|
 |---------------------------------------------------------------------------------------|
 |---------------------------------------------------------------------------------------|
 |-------------------14----14-14--14-14~----/17-17~--17-16-15~---------------------------|
 |-15-15----17-------------------------------------------------15-15-17pb19-15----18b20--|
 |-------14----14-14----14-----------------------------------------------------16--------|
 |---------------------------------------------------------------------------------------|
 |---------------------------------------------------------------------------------------|
 |---------------------------------------------------------------------------------------|
 |-------------------------15-16-17~~-------|
 |-18b18.5--18-15-15-15~--------------------|
 |------------------------------------------|
 |------------------------------------------|
 |------------------------------------------|
 |------------------------------------------|

Riff:
 
 |------2----3----|
 |-3----3----3----|
 |-2----2----0----|
 |-0----0----0----|
 |------x----2----|
 |------2----3----| (x2)

Chorus:
[Em]Running the world
It's the [F#m]time of our lives
[G]Baby we won't ever d[A]ie
[Em]Fight till we fall
[F#m]Standing tall
[G]Time is on our s[A]ide
'Cause w[G]e're the y[A]oung we're alr[D]ight
[D]What a day, what a d[G]ay, what a d[C]ay
[D]What a day, what a d[G]ay, what a d[C]ay
[D]What a day, what a d[G]ay, what a d[C]ay
[D]What a day, what a d[G]ay, what a d[C]ay
Is it my imagin[A]ation[G#]? ([G]No)
I said it's my imagin[A]atio[G#]n?([G]No, no, no, no)
Is it my imagin[A]atio[G#]n?[G]
We're the young we're alright y[D]eah

Important: The song above is NOT stored on the Chordie server. The original song is hosted at www.guitaretab.com. Chordie works as a search engine and provides on-the-fly formatting. Chordie does not index songs against artists'/composers' will. To remove this song please click here.

Text color:
Chord color:
Chord grids: 
Font size:    
Page size: 

A C D D/F# Em F#m G G#
Rate #1 of 4 versions

Login - add to songbook

SHARE PAGE  




You need to log in to post comments