Guitar Tabs, Chords and Lyrics
Server problems seems to be fixed. Chordie has been experiencing problems with songs disappearing. These issues now seems to be fixed, but still verifying the fix. If you find anything strange, please email admin@chordie.com.


Country Roads  Me First and the Gimme Gimmes

 
 -------------------------------------------------------------------------

Me First AND The Gimme Gimmes-County Roads
 
 -------------------------------------------------------------------------

Tabbed by:Mat Waters
Email:Slash_gibsons@hotmail.com
Tuning:EADGBE
Intro(gtr1-A F# Em D (X2)
Intro(gtr2-Lead)(2nd time of gtr1`s intro)
(This is not perfect but fuck around with these notes & ull get it)
 
 E--b--b---------------------------------------------------------------------|
 B-12-12--------------------b------------------------------------------------|
 G-------------14----14----16-14----14------------------------------------12-|
 D-------14/16----16----16-------16----16-14----------------------14-16-14---|
 A-------------------------------------------14/16-14-------14-16------------|
 E----------------------------------------------------14-12------------------|

Verse 1-
[A]Almost heaven, W[F#]est Virginia
[Em]Blue Ridge Mountains,[D]Shenandoah River
[A]Life is old there,[F#]older than the trees
[Em]Younger than the mountains,[D]blowing like a breeze
(Chorus)
Country [A]roads, take me [Em]home
To the [F#]place where I bel[D]ong
West Vir[A]ginia, mountain [Em]momma
Take me [D]home, country [A]roads
(Verse)
[A]All my memories [F#]gathered 'round her
[Em]Miner's lady [D]stranger to blue water
[A]Dark and dusty [F#]painted on the sky
[Em]Misty taste of moonshine,[D]teardrop in my eye
(Chorus)
Country [A]roads, take me [Em]home
To the [F#]place where I bel[D]ong
West Vir[A]ginia, mountain [Em]momma
Take me [D]home, country [A]roads
(Bridge)(Kinda hard to explain in chords,so i tabbed it aswel)
[F#] [Em] [A]  
 
 E-------------------------------------------------------------------|
 B-------------------------------------------------------------------|
 G-------------------------------------------------------------------|
 D-4----------------2----------------7-------------------------------|
 A-4-4-4-4-4-4-4-4--2-2-2-2-2-2-2-2--7-7-7-7-7-7-7-7-7-7-7-7-7-7-7-7-|
 E-2-2-2-2-2-2-2-2--0-0-0-0-0-0-0-0--5-5-5-5-5-5-5-5-5-5-5-5-5-5-5-5-|

[D] [A] [Em]  
 
 E-------------------------------------------------------------------|
 B-------------------------------------------------------------------|
 G-7--7--------------------------------------------------------------|
 D-7--7-------------------2------------------------------------------|
 A-5--5--7-7-7-7-7-7-7-7--2-2-2-2-2-2-2-2-2-2-2-2-2-2-2-2-2----------|
 E-------5-5-5-5-5-5-5-5--0-0-0-0-0-0-0-0-0-0-0-0-0-0-0-0-0----------|

[F#] [G] [D] [A]  
 
 E--------------------------------------------------------------------|
 B--------------------------------------------------------------------|
 G-----------------------------------7--------------------------------|
 D-4----------------5----------------7-7-7-7-7-7-7-7--7---------------|
 A-4-4-4-4-4-4-4-4--5-5-5-5-5-5-5-5--5-5-5-5-5-5-5-5--7-7-7-7-7-7-7-7-|
 E-2-2-2-2-2-2-2-2--3-3-3-3-3-3-3-3-------------------5-5-5-5-5-5-5-5-|

[Em]  
 
 E--------------------------------------------------------------------|
 B--------------------------------------------------------------------|
 G------------------------------------9-------------------------------|
 D-2----------------------------------9-------------------------------|
 A-2-2-2-2-2-2-2-2-2-2-2-2-2-2-2-2-2--7-------------------------------|
 E-0-0-0-0-0-0-0-0-0-0-0-0-0-0-0-0-0----------------------------------|

[F#]I hear her [Em]voice in the [A]morning hour she calls me
[D]Radio r[A]eminds me of my [Em]home far away
[F#]Driving on the [G]road I get a [D]feeling that I
[A]should have been home [Em]yesterday, yesterday
(Chorus)
Country [A]roads, take me [Em]home
To the [F#]place where I bel[D]ong
West Vir[A]ginia, mountain [Em]momma
Take me [D]home, country [A]roads
[Em]Take me home,[A]country roads
[Em]Take me home,[A]yeah country roads
[Em]Take me [D]home
[A]Country roads, yeah
Yeay! Yeay! Yeay! Yeay! Whoo!

Important: The song above is NOT stored on the Chordie server. The original song is hosted at www.guitaretab.com. Chordie works as a search engine and provides on-the-fly formatting. Chordie does not index songs against artists'/composers' will. To remove this song please click here.

Text color:
Chord color:
Chord grids: 
Font size:    
Page size: 

A D Em F# G
Rate #2 of 3 versions

Jango Player

Login - add to songbook

SHARE PAGE  



You need to log in to post comments