Guitar Tabs, Chords and Lyrics
Server problems seems to be fixed. Chordie has been experiencing problems with songs disappearing. These issues now seems to be fixed, but still verifying the fix. If you find anything strange, please email admin@chordie.com.


End of the Road  Me First and the Gimme Gimmes

Song: End of the road
Album: Take a break
Tabbed by kurt826
Standard tuning
Play with powerchords
Bridge
When I [B]can't sleep at night without ho[A#]lding you tight
Girl, [F#]each time I try I just br[E]eak down and cry
[G]Pain in my head oh I'd rat[F#]her be dead
[G]Spinnin' around and[A] around
Chorus
Although we've [D]come to the end o[A]f the r[B]oad
Still I can't l[A]et g[G]o
It's unn[F#]atural, you belo[G]ng to me, I bel[A]ong to you
[D]Girl, I know you love me[A] [B]
You just don't reali[A]ze[G]
You've never be[F#]en there before
It's only[G] your first ti[A]me
[D]Maybe I'll forgive yo[A]u[B]
One day maybe you'll t[A]ry[G]
We should be h[F#]appy together
[G]Forever you and [A]I
Bridge 2
Will you [B]love me again like you love[A#]d me before
[A]This time I want you to l[E]ove me much more
[G]This time instead just come t[F#]o my bed
And b[G]aby just don't let me [A]down
End....
Me First and the Gimmie Gimmies
End of the Road
Tabbed by Harland Yeo
Intro fill in thing
 
 e--11----10--8----6--4--3--4--6--|
 b--------------------------------|
 g--------------------------------|
 d--------------------------------|
 a--------------------------------|
 E--------------------------------|

Verse
 
 e------------------------------------------------------------------------------------------|
 b------------------------------------------------------------------------------------------|
 g--5--4--5--------------3------------------------------------------------------------------|
 d--5--4--5--3--6--5--6--3------------------------------------------------------------------|
 a--3--2--3--3--6--5--6--1------------------------------------------------------------------|
 E-----------1--4--3--4---------------------------------------------------------------------|

Chorus
 
 e-------------------------------------------------------------------------------------------------|
 b-------------------------------------------------------------------------------------------------|
 g----88-8-88-8-88-8-77-7-55-5-55-5-55-5-33-3------------------------------------------------------|
 d----88-8-88-8-88-8-77-7-55-5-55-5-55-5-33-3-66-6-66-6-55-5-55-5-66-6-66-6-88-8-88-8--------------|
 a----66-6-66-6-66-6-55-5-33-3-33-3-33-3-11-1-66-6-66-6-55-5-55-5-66-6-66-6-88-8-88-8--------------|
 E--------------------------------------------44-4-44-4-33-3-33-3-44-4-44-4-66-6-66-6--------------|

verse 2
 
 e-------------------------------|
 b-------------------------------|
 g--55-44-33---------------------|
 d--55-44-33--33----66-55-66-88--|
 a--33-22-11--33----66-55-66-88--|
 E------------11----44-33-44-66--|

solo ?
It's playing around with the intro but more
Lyrics
(Spoken:)
Darlin', You complete me.
But you make alot of asumptions, and when you
asume things you make an ass out of you and me.
Don't make an ass out of me.
We belong together
And you that I'm right
Why do you play with my heart?
Why do you play with my mind?
Said we'd be forever
Said it'd never die
How could you love me and leave me
And never say goodbye?
When I can't sleep at night without holding you tight
Girl, each time I try I just break down and cry
Pain in my head oh I'd rather be dead
Spinnin' around and around
(Chorus:)
Although we've come to the end of the road
Still I can't let go
It's unnatural, you belong to me, I belong to you
Girl, I know you love me
You just don't realize
You've never been there before
It's only your first time
Maybe I'll forgive you
One day maybe you'll try
We should be happy together
Forever you and I
Will you love me again like you loved me before
This time I want you to love me much more
This time instead just come to my bed
And baby just don't let me down
(Spoken)
Hey babe remember when we walked down to the beach and drank the 12er?
We were so wasted we passed out.
I got that narly sunburn, it was so ghetto
But ever since then you totally backin me, your bitchin' fully blazed of me
we've got a radical future in front of us, i'm so stoked.
come to the end of the road
Still I can't let go
It's unnatural, you belong to me, I belong to you
come yes we've come to the end of the road
Still I can't, I can't let go
It's unnatural, you belong to me, but we've come to the end of the road.
Tabbed by Harland Yeo

Important: The song above is NOT stored on the Chordie server. The original song is hosted at www.guitaretab.com. Chordie works as a search engine and provides on-the-fly formatting. Chordie does not index songs against artists'/composers' will. To remove this song please click here.

Text color:
Chord color:
Chord grids: 
Font size:    
Page size: 

A A# B D E F# G
Rate #1 of 4 versions

Login - add to songbook

SHARE PAGE  




You need to log in to post comments